E-Chords
Ennio Morricone

Mystic And Severe(Tabs)

Ennio Morricone

roll up this ad to continue

Key: E
------------------------------------------------------------------------------- 


Tuning: Standard (E) 

e|---------------------------------------------------------------------------| 
B|---------------------------------------------------------------------------| 
G|---------------------------------------------------------------------------| 
D|------------5----5----7----7----9----7----5---------5----------------------| 
A|--7----7---------------------------------------7---------7----5----5-------| 
E|------------------------------------------------------------------------7--| 

e|---------------------------------------------------------------------------| 
B|---------------------------------------------------------------------------| 
G|---------------------------------------------------------------------------| 
D|-------9----7----9---------------------------------------------------------| 
A|---------------------------------------------------------------------------| 
E|--7------------------------------------------------------------------------| 

e|---------------------------------------------------------------------------| 
B|---------------------------------------------------------------------------| 
G|---------------------------------------------------------------------------| 
D|------------5----5----7----7----9----7----5---------5----------------------| 
A|--7----7---------------------------------------7---------7----5----5----7--| 
E|---------------------------------------------------------------------------| 

e|---------------------------------------------------------------------------| 
B|---------------------------------------------------------------------------| 
G|---------------------------------------------------------------------------| 
D|---------------------------------------------------------------------------| 
A|--7--------------7---------------------------------------------------------| 
E|-------7----7---------7----------------------------------------------------| 
share this page

See Also: