E-Chords
Ennio Morricone

La Donna Gattina(Tabs)

Ennio Morricone

roll up this ad to continue

Key: Bb
 verse 1 
  Bb               Gm 
e|----------------|----------------| 
B|----------------|----------------| 
G|------------10--|------------7---| 
D|------10--8-----|------7---5-----|   x 2 
A|----8-----------|----5-----------| 
E|6---------------|3---------------| 

  Bb               Dm 
e|----------------|----------------| 
B|----------------|------------10--| 
G|------------10--|------9---7-----|   x 1 
D|------10--8-----|----7-----------| 
A|----8-----------|5---------------| 
E|6---------------|----------------| 


 verse 2 
  Bb                                F 
e|----------------|----------------|1---------------| 
B|----------------|--------3-------|1---------------| 
G|------------10--|------3-----3---|2---------------|   
D|------10--8-----|---5------5-----|3-----(7-----10)|  x 1 
A|----8-----------|6---------------|3--------10-8---| 
E|6---------------|----------------|1---------------| 


 verse 3 
  Bb                
e|----------------| 
B|----------------| 
G|------------10--|   
D|------10--8-----| 
A|----8-----------| 
E|6---------------| 
share this page

See Also: