E-Chords
Ennio Morricone

Il Mercenario Reprise(Tabs)

Ennio Morricone

roll up this ad to continue

e|------------------2----------------------------------------------------------| 
B|------------------2-3-2-------------------------3----------------------------| 
G|6-7-6-4/6-6vvv----2-----4 2vvv----6-7-6-4-6vv---2-----6-7-6-4----4-----------| 
D|7-----------------4---------------7-------------0-----7-------7v-6--6v--7---7| 
A|7-----------------4---------------7-------------------7---------------------7| 
E|5-----------------2---------------5-------------------5---------------------5| 



 
e|0--------0---1----------------------------------------------------------| 
B|----3-------------------------------------------------------------------| 
G|--2----2---2---2--------------------------------------------------------| 
D|------------------------------------------------------------------------| 
A|------------------------------------------------------------------------| 
E|------------------------------------------------------------------------| 

 
e|---------------------------------------------------------------------------| 
B|---------------------------------------------------------------------------| 
G|---------------------------------------------7-----------------------------| 
D|7---5-7-8-7vv--------5-7--7vvv------5--7-8-7---10-7vv-----5-7--------------| 
A|--8----------------8------------------------------------------8vv-8vvv-----| 
E|---------------------------------------------------------------------------| 

e|---------------------------------------------------------------------------| 
B|---------------------------------------------------------------------------| 
G|---------------------------------------------------------------------------| 
D|---------------------------------------7-8-10-7-8-7-5---5vv-----5-7vv------| 
A|10-8-7-8vv--10-8-7-8vv----7-8-10vv--10----------------8------8-------------| 
E|---------------------------------------------------------------------------| 



 
share this page

See Also: