E-Chords
Enchant

Acquaintance(Tabs)

Enchant

Key: Am
 
|----------0--------------0-----------------0----------1-0------| 
|---1---------------1-------1--------1-----------1---------1----| 
|-----2---------------0-------0--------2-----------3---------2--| 
|-------3---------------3-------3--------3-----------3----------| 
|-0--------------------------------0-----------1----------------| 
|-----------------3---------------------------------------------| 
 
|-1-1---3---------5-5---5----------1-1---3-----5-5-------------| 
|-1-1---3---------5-5---5----------1-1---3-----5-5-------------| 
|-3-3---5---------7-7---5----------3-3---5-----7-7---9---------| 
|-3-3---5---------7-7---7----------3-3---5-----7-7---9---------| 
|-1-1---3---------5-5---7----------1-1---3-----5-5---7---------| 
|-----------------------5--------------------------------------| 
 
|-------3-----0-----3-----0--------------1-----0-----1-----0-------| 
|-----1-----1---1-----1-----1----------3-----3---3-----3-----3-----| 
|---2-----2-------2-----2-----2------2-----2-------2-----2-----2---| 
|-3-----------------------------3--0-----------------------------0-| 
|------------------------------------------------------------------| 
|------------------------------------------------------------------| 
 
|-------3-----0-----3-----0----------------------------------------| 
|-----1-----1---1-----1-----1--------------3---------------1-------| 
|---2-----2-------2-----2-----2--------0-----0---------2-----2-----| 
|-3-----------------------------3----2---2-----2-----2---2-----2---| 
|----------------------------------3-------------3-0-------------0-| 
|------------------------------------------------------------------| 
 
X2 
|--------------------------------------------------------------| 
|--------------------------------------------------------------| 
|-3-3---5---------7-7---------------------3-3---5-----7-7---9--| 
|-3-3---5---------7-7---7-5-3-2---3-2-----3-3---5-----7-7---9--| 
|-1-1---3---------5-5---7-------5-----5-3-1-1---3-----5-5---7--| 
|-----------------------5--------------------------------------| 
 
Solo em Am e F 
 
E depois : C Dm Am F  
 
 
 
 
Solo FInal 
 
|-------15------------15/17-12-------------15---20 20-19-------| 
|-12-13---------12-13----------------12-13---------------20----| 
|--------------------------------------------------------------| 
|--------------------------------------------------------------| 
|--------------------------------------------------------------| 
|--------------------------------------------------------------| 
 
|-12-13-15-----------------------------------------------------| 
|----------13----12-13-15--------------------------------------| 
|-------------------------12--------12-14-16-16b17-16b17r16-12-| 
|--------------------------------------------------------------| 
|--------------------------------------------------------------| 
|--------------------------------------------------------------| 
 
|--------------------------------------------------------------| 
|--------------------------------------------------------------| 
|-12-14-16-16b17-16b17r16-14--------12-14-16-16b17-16b17r16-12-| 
|--------------------------------------------------------------| 
|---------------------------------------------------------etc..| 
|--------------------------------------------------------------| 
 
_______________________________________________________ 
Contribuição: Gabriel Lucas([email protected]) 

roll up this ad to continue

share this page

See Also: