E-Chords
Emmure

We Were Just Kids(Tabs)

Emmure

Key: A
Spent hours trying to learn this out by ear and figure out the different chords, Really accurate, maybe not 100% 
But i didn't see Any tabs of this song, it's my favorite off of their new album <3 

Tuning: Drop A 

INTRO 
e|---------------------------------------------------------------------------| 
G|-------------------------------------6~---------------4~-------------------| 
H|---3~---------------5~-----------------------------------------------------| 
D|---------------------------------------------------------------------------| 
A|-----------------------------------6----------------6----------------------| 
E|-3----------------6--------------------------------------------------------| 
A|---------------------------------------------------------------------------| 

e|---------------------------------------------------------------------------| 
B|-----------------------------------6~~~~---------------~-------------------| 
G|---3~---------------5~-----------------------------------------------------| 
D|---------------------------------------------------------------------------| 
A|-----------------------------------6-~~~-----------------------------------| 
E|-3----------------6--------------------------------------------------------| 
A|---------------------------------------------------------------------------| 



GUITAR 1 
e|-----------------------------------------------------------------brb-------| 
B|------10------10------10------10------10---------10------10------10^-------| \ 
G|----7-------7-------7-------7-------7----7-----7-------7-------7-----7-----|  \ 
D|-8-------8-------8-------8-------8---------10-------10------10---------10~-|   \ 
A|---------------------------------------------------------------------------|    \ 
E|---------------------------------------------------------------------------|     \ 
A|---------------------------------------------------------------------------|      \ 
                                                                               x4    \ 
Guitar 2                                                                              > 
e|---------------------------------------------------------------------------|       /   
B|---------------------------------------------------------------------------|      / 
G|-3-3-3-3-3-3-3-3-3-3-3-3-3-3-3-3-5-5-5-5-5-5-5-5-5-5-5-5-5-5-5-5-55555555--|     / 
D|-0-0-0-0-0-0-0-0-0-0-0-0-0-0-0-0-3-3-3-3-3-3-3-3-3-3-3-3-3-3-3-3-33333333--|    / 
A|-1-1-1-1-1-1-1-1-1-1-1-1-1-1-1-1-4-4-4-4-4-4-4-4-4-4-4-4-4-4-4-4-44444444--|   / 
E|-3-3-3-3-3-3-3-3-3-3-3-3-3-3-3-3-------------------------------------------|  / 
A|---------------------------------------------------------------------------| / 



GUITAR 1   'TOO MUCH TOO SOON' 
e|---------------------------------------------------------------------------|\ 
B|---------------------------------------------------------------------------| \ 
G|-3-3-3-3-3-3-3-3-5-5-5-5-5-5-5-5-5-5-5-5-5-5-5-5-3-3-3-3-3-3-3-3-2~--------|  \ all tremolo 
D|-----------------------------------------------------------------0---------|   \ 
A|-----------------------------------------------------------------3---------|    \ 
E|---------------------------------------------------------------------------|     \ 
A|---------------------------------------------------------------------------|      \ 
                                                                               x2    \ 
GUITAR 2                                                                             / 
e|---------------------------------------------------------------------------|      / 
B|---------------------------------------------------------------------------|     / 
G|-----------------------------------------55555555--------2~~---------------|    / 
D|-00000000--------00000000--------0000000033333333--------0~~---------------|   / 
A|-55555555--------55555555--------5555555544444444--------3~~---------------|  / 
E|-33333333--------33333333--------33333333----------------------------------| / 
A|---------------------------------------------------------------------------|/ 

'or is that simply my excuse?' 

BRIDGE 
e|---------------------------------------------------------------------------| 
B|---------------------------------------------------------------------------| 
G|---------------------------------------------------------------------------| 
D|-0-0-0----0-0-0----0-0-----------------------------------------------------| 
A|-5-5-5----5-5-5----5-5-----------------------------------------------------| 
E|-3-3-3----3-3-3----3-3-----------------------------------------------------| 
A|---------------------------------------------------------------------------| 

Guitar 1 & 2 
e|---------------------------------------------------------------------------| 
B|---------------------------------------------------------------------------| 
G|---------------------------------55555555----55555555----55555555----------| 
D|-00000000----00000000----0000000033333333----33333333----33333333----------| 
A|-55555555----55555555----5555555544444444----44444444----44444444----------| 
E|-33333333----33333333----33333333------------------------------------------| 
A|---------------------------------------------------------------------------| 

Guitar 1 & 2 
e|---------------------------------------------------------------------------| 
B|---------------------------------------------------------10101010----------| 
G|---------------------------------55555555----55555555-----7-7-7-7----------| 
D|-00000000----00000000----0000000033333333----33333333-----8-8-8-8----------| 
A|-55555555----55555555----5555555544444444----44444444----------------------| 
E|-33333333----33333333----33333333------------------------------------------| 
A|---------------------------------------------------------------------------| 




GUITAR 1 
e|---------------------------------------------------------------------------| 
B|---------------------------------------------------------------------------| 
G|-3-3-3-3-3-3-3-3-5-5-5-5-5-5-5-5-5-5-5-5-5-5-5-5-3-3-3-3-3-3-3-3-2~--------|  
D|-----------------------------------------------------------------0---------| X2 
A|-----------------------------------------------------------------3---------| 
E|---------------------------------------------------------------------------| 
A|---------------------------------------------------------------------------| 


GUITAR 2 (played 4 times along with guitar 1) 
e|---------------------------------------------------------------------------| 
B|---------------------------------------------------------------------------| 
G|---------------------------------55555555----55555555----55555555----------| 
D|-00000000----00000000----0000000033333333----33333333----33333333----------| 
A|-55555555----55555555----5555555544444444----44444444----44444444----------| 
E|-33333333----33333333----33333333------------------------------------------| 
A|---------------------------------------------------------------------------| 

GUITAR 2 continued (ON THE 2nd AND 4th TIME PLAY THIS ONE) 
e|---------------------------------------------------------------------------| 
B|---------------------------------------------------------10101010----------| 
G|---------------------------------55555555----55555555-----7-7-7-7----------| 
D|-00000000----00000000----0000000033333333----33333333-----8-8-8-8----------| 
A|-55555555----55555555----5555555544444444----44444444----------------------| 
E|-33333333----33333333----33333333------------------------------------------| 
A|---------------------------------------------------------------------------| 

TOO MUCH TOO SOON 

Chorus i think 
GUITAR 1 
e|-----------------------------------------------------------------brb-------| 
B|------10------10------10------10------10---------10------10------10^-------| \ 
G|----7-------7-------7-------7-------7----7-----7-------7-------7-----7-----|  \ 
D|-8-------8-------8-------8-------8---------10-------10------10---------10~-|   \ 
A|---------------------------------------------------------------------------|    \ 
E|---------------------------------------------------------------------------|     \ 
A|---------------------------------------------------------------------------|      \ 
                                                                               x4    \ 
Guitar 2                                                                              > 
e|---------------------------------------------------------------------------|       /   
B|---------------------------------------------------------------------------|      / 
G|-3-3-3-3-3-3-3-3-3-3-3-3-3-3-3-3-5-5-5-5-5-5-5-5-5-5-5-5-5-5-5-5-55555555--|     / 
D|-0-0-0-0-0-0-0-0-0-0-0-0-0-0-0-0-3-3-3-3-3-3-3-3-3-3-3-3-3-3-3-3-33333333--|    / 
A|-1-1-1-1-1-1-1-1-1-1-1-1-1-1-1-1-4-4-4-4-4-4-4-4-4-4-4-4-4-4-4-4-44444444--|   / 
E|-3-3-3-3-3-3-3-3-3-3-3-3-3-3-3-3-------------------------------------------|  / 
A|---------------------------------------------------------------------------| / 



(INTRO x4) 


Guitar 1 & 2  (*ON 3rd and 4th TIME, GUITAR 2 plays INTRO TWICE) 
e|---------------------------------------------------------------------------| 
B|---------------------------------------------------------------------------| 
G|------------------5-5-5----5-5-5-------------------------------------------| 
D|-0-0-0-0-0--------3-3-3----3-3-3-3-3-3-3-3--------3-3-3--x--3-3-3----------| x4 
A|-5-5-5-5-5--------4-4-4----4-4-4-6-6-6-6-6--------6-6-6--x--6-6-6----------| 
E|-3-3-3-3-3-----------------------------------------------------------------| 
A|---------------------------------------------------------------------------| 


Guitar 1 & 2 
e|---------------------------------------------------------------------------| 
B|---------------------------------------------------------------------------| 
G|-3-3-3-3-3-3-3-3-5-5-5-5-5-5-5-5-3-3-3-3-3-3-3-3-3-3-3-3-3-3-3-3-----------| 
D|-0-0-0-0-0-0-0-0-3-3-3-3-3-3-3-3-1-1-1-1-1-1-1-1-1-1-1-1-1-1-1-1-----------| x4 
A|-1-1-1-1-1-1-1-1-4-4-4-4-4-4-4-4-3-3-3-3-3-3-3-3-3-3-3-3-3-3-3-3-----------| 
E|-3-3-3-3-3-3-3-3-----------------------------------------------------------| 
A|---------------------------------------------------------------------------| 


OUTRO 
(play into twice) 


************************************ 

| /   slide up 
| \   slide down 
| h   hammer-on 
| p   pull-off 
| ~   vibrato 
| +   harmonic 
| x   Mute note 
| b   Bend 
| pb  Pre-bend 
| br  Bend release 
| pbr Pre-bend release 
| brb Bend release bend 

************************************ 

roll up this ad to continue

share this page

See Also: