E-Chords
Emmure

Torch(Tabs)

Emmure

Key: A
Tuning: A E A D Gb B 

Riff 1 - 00:00 - 00:07 - Clean w. Delay 
- ----------13------------------------------------------------------------------- 
- ----11-------------------------------11h13-------------------15---------------- 
- -14----14----------------------------------12/14-------15-14----12------------- 
- ------------------------------------------------------------------------------- 
- ------------------------------------------------------------------------------- 
- ------------------------------------------------------------------------------- 

Riff 2 - 00:07 - 00:23 
- ----------------------------------------------------------------- 
- ----------------------------------------------------------------- 
- ----------------------------------------------------------------- 
- ----------------------------------------------------------------- 
- -0-0-----------------------0-0-0-0-0----------------------------- 
- -0-0-----------------------0-0-0-0-0----------------------------- 
PM ............................................................... 

- ----------------------------------------------------------------- 
- ----------------------------------------------------------------- 
- ----------------------------------------------------------------- 
- -0-------------------------------0------------------------------- 
- -0-------------------------------0---------------------------0-0- 
- -0-------------------------------0---------------------------0-0- 
PM                                                             ... 

Riff 3 - 00:23 - 01:02 
- ----------------------------------------------------------------- 
- ----------------------------------------------------------------- 
- ----------------------------------------------------------------- 
- -------------------------------------------------------------1--- 
- -0-0---0-0-0-0-----------0-0-------------0-0-----0-0---1-4-2-1--- 
- -0-0---0-0-0-0-----------0-0-------------0-0-----0-0---1-4-2-1--- 
PM ........................................................... 

- ----------------------------------------------------------------- 
- ----------------------------------------------------------------- 
- ----------------------------------------------------------------- 
- -------------------------------------------------------------1--- 
- -0-0---0-0-0-0-----------0-0-------------0-0-----0-0---1-4-2-1--- 
- -0-0---0-0-0-0-----------0-0-------------0-0-----0-0---1-4-2-1--- 
PM ........................................................... 

- ----------------------------------------------------------------- 
- ----------------------------------------------------------------- 
- ----------------------------------------------------------------- 
- -------------------------------------------------------------1--- 
- -0-0---0-0-0-0-----------0-0-------------0-0-----0-0---1-4-2-1--- 
- -0-0---0-0-0-0-----------0-0-------------0-0-----0-0---1-4-2-1--- 
PM ........................................................... 

- ----------------------------------------------------------------- 
- ----------------------------------------------------------------- 
- ----------------------------------------------------------------- 
- -------------------------------------------------------1-4-2-1-4- 
- -0-0---0-0-0-0-----------0-0-------------0-0-----0-0---1-4-2-1-4- 
- -0-0---0-0-0-0-----------0-0-------------0-0-----0-0---1-4-2-1-4- 
PM ................................................... 

Riff 4 - 01:02 - 01:14 
- ------------------------------------------------------------------- 
- ------------------------------------------------------------------- 
- ------------------------------------------------------------------- 
- -0-----------------------------1/6--6-6---------1/4--4-4-------1--- 
- -0-0-0-0-0-0-0-0-0-0-0-0-1-0-1-1/6--6-6-0-1-3-1-1/4--4-4-0-4-2-1--- 
- -0-0-0-0-0-0-0-0-0-0-0-0-1-0-1-1/6--6-6-0-1-3-1-1/4--4-4-0-4-2-1--- 
PM   ...........................          .......          ..... 

- ------------------------------------------------------------------- 
- ------------------------------------------------------------------- 
- ------------------------------------------------------------------- 
- -------------------------------1/6--6-6---------1/4--4-4-0-4-2-1--- 
- -0-0-0-0-0-0-0-0-0-0-0-0-1-0-1-1/6--6-6-0-1-3-1-1/4--4-4-0-4-2-1--- 
- -0-0-0-0-0-0-0-0-0-0-0-0-1-0-1-1/6--6-6-0-1-3-1-1/4--4-4-0-4-2-1--- 
PM .............................          ....... 


Riff 5a, Guitar 1 & 2 - 01:14 - 01:39 
- ----------------------------------------------------------------- 
- ----------------------------------------------------------------- 
- ----------------------------------------------------------------- 
- -----------------------------------------6-------4-----------1--- 
- -0-0-0-0-0-0-------------0-0-------------6-----0-4-----0-4-2-1--- 
- -0-0-0-0-0-0-------------0-0-------------6-----0-4-----0-4-2-1--- 
PM ...........................                   .       ..... 
- 
- ----------------------------------------------------------------- 
- ----------------------------------------------------------------- 
- ----------------------------------------------------------------- 
- -----------------------------------------6-------4-----------1--- 
- -0-0-0-0-0-0-------------0-0-------------6-----0-4-----0-4-2-1--- 
- -0-0-0-0-0-0-------------0-0-------------6-----0-4-----0-4-2-1--- 
PM ...........................                   .       ..... 


- ----------------------------------------------------------------- 
- ----------------------------------------------------------------- 
- ----------------------------------------------------------------- 
- -----------------------------------------6-------4-----------1--- 
- -0-0-0-0-0-0-------------0-0-------------6-----0-4-----0-4-2-1--- 
- -0-0-0-0-0-0-------------0-0-------------6-----0-4-----0-4-2-1--- 
PM ...........................                   .       ..... 
- 
- ----------------------------------------------------------------- 
- ----------------------------------------------------------------- 
- ----------------------------------------------------------------- 
- -----------------------------------------6-------4-----------1--- 
- -0-0-0-0-0-0-------------0-0-------------6-----0-4-----0-4-2-1--- 
- -0-0-0-0-0-0-------------0-0-------------6-----0-4-----0-4-2-1--- 
PM ...........................                   .       ..... 


- ----------------------------------------------------------------- 
- ----------------------------------------------------------------- 
- ----------------------------------------------------------------- 
- ----------------------------------------------------------------- 
- 5-5-5-5-5-5-5-5-5-5-5-5-5-5-5-5-5-5-5-5-5-5-5-5-5-5-5-5-5-5-5-5 Touch Harmonics 
- ----------------------------------------------------------------- 
- 
- ----------------------------------------------------------------- 
- ----------------------------------------------------------------- 
- ----------------------------------------------------------------- 
- -----------------------------------------6-------4-----------1--- 
- -0-0-0-0-0-0-------------0-0-------------6-----0-4-----0-4-2-1--- 
- -0-0-0-0-0-0-------------0-0-------------6-----0-4-----0-4-2-1--- 
PM ...........................                   .       ..... 


- ----------------------------------------------------------------- 
- ----------------------------------------------------------------- 
- ----------------------------------------------------------------- 
- ----------------------------------------------------------------- 
- 5-5-5-5-5-5-5-5-5-5-5-5-5-5-5-5-5-5-5-5-5-5-5-50-----0-----0--- Touch Harmonics 
- -------------------------------------------------0-----0-----0--- 
PM                                                 ............... 
- 
- ----------------------------------------------------------------- 
- ----------------------------------------------------------------- 
- ----------------------------------------------------------------- 
- ----------------------------------------/4\---------------------- 
- -0-0-0-0-0-0-------------0-0------------/4\------0-----0-----0--- 
- -0-0-0-0-0-0-------------0-0------------/4\------0-----0-----0--- 
PM ...........................                     ............. 


- ----------------------------------------------------------------- 
- ----------------------------------------------------------------- 
- ----------------------------------------------------------------- 
- ----------------------------------------------------------------- 
- 5-5-5-5-5-5-5-5-5-5-5-5-5-5-5-5-5-5-5-5-5-5-5-5-5-5-5-5-5-5-5-5 Touch Harmonics 
- ----------------------------------------------------------------- 
- 
- ----------------------------------------------------------------- 
- ----------------------------------------------------------------- 
- ----------------------------------------------------------------- 
- -----------------------------------------6-------4-----------1--- 
- -0-0-0-0-0-0-------------0-0-------------6-----0-4-----0-4-2-1--- 
- -0-0-0-0-0-0-------------0-0-------------6-----0-4-----0-4-2-1--- 
PM ...........................                   .       ..... 


- ----------------------------------------------------------------- 
- ----------------------------------------------------------------- 
- ----------------------------------------------------------------- 
- -----------------------------------------6-------4-----------1--- 
- 5-5-5-5-5-5-5-5-5-5-5-5-5-5-5-5-5-5-5-56-----0-4-----0-4-2-1--- 
- -----------------------------------------6-----0-4-----0-4-2-1--- 
PM                                               .       ..... 
- 
- ----------------------------------------------------------------- 
- ----------------------------------------------------------------- 
- ----------------------------------------------------------------- 
- -----------------------------------------6-------4-----------1--- 
- -0-0-0-0-0-0-------------0-0-------------6-----0-4-----0-4-2-1--- 
- -0-0-0-0-0-0-------------0-0-------------6-----0-4-----0-4-2-1--- 
PM ...........................                   .       ..... 


Riff 5b - 01:14 - 01:39 - x12 
- -------13----13----------13----13----------13---- 
- ----11----------11----11----------11----11------- 
- -14-------14-------14-------14-------14-------14- 
- ------------------------------------------------- 
- ------------------------------------------------- 
- ------------------------------------------------- 

Riff 5c - 01:!4 - 01:39 - x2 - Clean w. Delay 
- ----------13--------------------------------------------------------------------------------------------- 
- -------------------------------------------------------------11h13-----------------15-------------------- 
- -------14----------------------------------------------------------12/14-----15-14----12----------------- 
- --------------------------------------------------------------------------------------------------------- 
- --------------------------------------------------------------------------------------------------------- 
- --------------------------------------------------------------------------------------------------------- 

Riff 6 - 01:39 - 01:52 
- ----------------------------------------------------------------- 
- ----------------------------------------------------------------- 
- ----------------------------------------------------------------- 
- ----------------------------------------------------------------- 
- -0-0-----------------------0-0-0-0-0-----------------------0-0-0- 
- -0-0-----------------------0-0-0-0-0-----------------------0-0-0- 
PM ............................................................... 

- ----------------------------------------------------------------- 
- ----------------------------------------------------------------- 
- ----------------------------------------------------------------- 
- ----------------------------------------------------------------- 
- -0-0-----------------------------0-0----------------------------- 
- -0-0-----------------------------0-0----------------------------- 
PM ............................................................... 

Riff 5b - 01:52 - 02:29 - x12 

Riff 7a - 01:52 - 02:16 
- ----------------------------------------------------------------- 
- ----------------------------------------------------------------- 
- ----------------------------------------------------------------- 
- ----------------------------------------------------------------- 
- -0-0-0-0-0-0-------------0-0------------------------------------- 
- -0-0-0-0-0-0-------------0-0------------------------------------- 
PM ............................................................... 

- -------------------------------------------------------------17-17- 
- -------------------------------------------------------------15-15- this noise is actually just the 
- -------------------------------------------------------------14-14- crunchy/twangy open chugs 
- ------------------------------------------------------------------- shifted up with an octave pedal. 
- -0-0-----0-0-------------0-0---------------------0-0-0-0-0-0------- the notes are octaves of open 
- -0-0-----0-0-------------0-0---------------------0-0-0-0-0-0------- 
PM ........................................................... 

- ----------------------------------------------------------------- 
- ----------------------------------------------------------------- 
- ----------------------------------------------------------------- 
- -----------------------------------------------------------------  
- -0-0-0-0-0-0-------------0-0---------------------0-0-0-0-0-0----- 
- -0-0-0-0-0-0-------------0-0---------------------0-0-0-0-0-0----- 
PM ........................................................... 

- ------------------------------------------------------------------- 
- -------------------------------------------------------------15-15- this noise is actually just the 
- -------------------------------------------------------------14-14- crunchy/twangy open chugs 
- -------------------------------------------------------------12-12- shifted up with an octave pedal. 
- -0-0-0-0-0-0-------------0-0---------------------0-0-0-0-0-0------- the notes are octaves of open 
- -0-0-0-0-0-0-------------0-0---------------------0-0-0-0-0-0------- 
PM ........................................................... 

Riff 7b - 01:52 - 02:16 - Clean w. Delay 
- -----------------------------13---------------------------------- 
- ----------------------------------------------------------------- 
- -------------------------14-------------------------------------- 
- ----------------------------------------------------------------- 
- ----------------------------------------------------------------- 
- ----------------------------------------------------------------- 

- ----------------------------------------------------------------- 
- ----------------------------------------------------------------- 
- -------------------------12-------------------------------------- 
- ---------15------------------------------------------------------ 
- ----------------------------------------------------------------- 
- ----------------------------------------------------------------- 

- -----------------------------13---------------------------------- 
- ----------------------------------------------------------------- 
- -------------------------14-------------------------------------- 
- ----------------------------------------------------------------- 
- ----------------------------------------------------------------- 
- ----------------------------------------------------------------- 

- ----------------------------------------------------------------- 
- -------------11h13----------------15----------------------------- 
- -------------------12/14----15-14----12-------------------------- 
- ----------------------------------------------------------------- 
- ----------------------------------------------------------------- 
- ----------------------------------------------------------------- 

Symbols 

PM... Palm Mute notes with (...) under them 
AP... Alternate Pick notes with (...) under them 
h     Hammer On 
p     Pull Off 
    Harmonic 
/     Slide Up 
\     Slide Down 
x     Dead Note 
b     Bend 
pb    Pre-Bend 
v     Vibrato 
r     Release Bend 
(x )  Play Notes x amount of times 
~     Let Note Ring 
/ 3 \ Notes are triplets (3 notes in the space of two) 
w\    Whammy Bar Down 
w/    Whammy Bar Up 
T     Right Hand Tap 
\\\   Pickslide Down 

:) 

roll up this ad to continue

share this page

See Also: