E-Chords
Emmure

22 Exists Away(Tabs)

Emmure

Key: A#
-0:00-0:05-Distorted noise/chugging 
-0:05-0:21- 
e|---------------------------------------------------------------------------| 
B|---------------------------------------------------------------------------| 
G|---------------------------------------------------------------------------| 
D|---------------------------------------------------------------------------| 
A|-------------9-7-9-6-9/10-9-7-9-6-9/10-9-7-9-6-9/10-9-9-9-12-12-12---------| 
E|0-0-0-0-0----9-7-9-6-9/10-9-7-9-6-9/10-9-7-9-6-9/10-9-9-9-12-12-12---------|   
A|0-0-0-0-0----9-7-9-6-9/10-9-7-9-6-9/10-9-7-9-6-9/10-9-9-9-12-12-12---------| 
-0:21-0:34- 
Next 2 scripts are probably not right, besides the chugging.Please help me correct.                       
e|---------------------------------------------------------------------------| 
B|---------------------------------------------------------------------------| 
G|---------------------------------------------------------------------------| 
D|---------------------------------------------------------------------------| 
A|---------------------1-1-1-1----------------------1-1-111-1-111------------| 
E|---------------------0-0-0-0----------------------0-0-000-0-000------------| 
A|44-22-44-22-11-44-55-1-1-1-1-44-22-44-22-11-44-55-1-1-111-1-111------------| 
                      Pm^^^^                       Pm^^^^^^^^^^^^ 
e|---------------------------------------------------------------------------| 
B|---------------------------------------------------------------------------| 
G|---------------------------------------------------------------------------| 
D|---------------------------------------------------------------------------| 
A|---------------------1-1-1-1----------------------1-1-1-1------------------| 
E|---------------------0-0-0-0----------------------0-0-0-0------------------| 
A|44-22-44-22-11-44-55-1-1-1-1-44-22-44-22-11-44-55-1-1-1-1------------------| 
                      Pm^^^^                       Pm^^^^ 
-0:34-0:41- 
e|---------------------------------------------------------------------------| 
B|---------------------------------------------------------------------------| 
G|---------------------------------------------------------------------------| 
D|---------------------------------------------------------------------------| 
A|---------------------------------------------------------------------------| 
E|1-111-3\4-1-111-1-111-3\4-1-111-1-111-3\4-1-111-1-111-3\4-1-111-1-111------| 
A|1-111-3\4-1-111-1-111-3\4-1-111-1-111-3\4-1-111-1-111-3\4-1-111-1-111-9/1--| 
    Pm^       Pm^   Pm^       Pm^   Pm^       Pm^   Pm^       Pm^   Pm^ 
-0:41-0:48- Guitar 1                                Guitar 2 
e|-------------------------------------| e|-----------------------------------| 
B|-------------------------------------| B|-----------------------------------| 
G|-------------------------------------| G|-----------------------------------| 
D|8-88-7-9--8-88-8---8-88-7-9--8-88-8--| D|-----------------------------------| 
A|-------------------------------------| A|--------1-1-1---------1-11-- 
E|6-66-9-11-6-66-6---6-66-9-11-6-66-6--| E|1-111-1-0-0-0-1-111-1-0-00--   X2 
A|-------------------------------------| A|1-111-1-1-1-1-1-111-1-1-11-- 
                                             Pm^   Pm^^^   Pm^   Pm^^ 
-0:51-1:18- 
e|---------------------------------------------------------------------------| 
B|---------------------------------------------------------------------------| 
G|---------------------------------------------------------------------------| 
D|-----------------------------------------------------------12-12-13--------| 
A|---------------------------------------------------------------------------| 
E|00-00-00-00-0--00-00-00-00-0--00-00-00-00-0--00-00-00-00-0-10-10-10--------| 
A|00-00-00-00-0--00-00-00-00-0--00-00-00-00-0--00-00-00-00-0-----------------| 
Pm breakdown^                                  ^^^^^^^^^^^^^^^^^^^^^^ X3 
-1:25-1:48- '& this my friends is a moment for all of us to remember..' 
e|---------------------------------------------------------------------------| 
B|---------------------------------------------------------------------12-11-| 
G|---------------------------------------------------------------------14-13-| 
D|---------------------------------------------------------------------------| 
A|1-1-1-111-1-1-111-1-1-111-1-1---------1-1-1-111-1-1-3-4-1-1-1-11-1-1-------| 
E|0-0-0-000-0-0-000-0-0-000-0-0---------0-0-0-000-0-0-----0-0-0-00-0-0-------| 
A|1-1-1-111-1-1-111-1-1-111-1-1-1-4-6/1-1-1-1-111-1-1-----1-1-1-11-1-1-------| 
Pm breakdown Play^2X    ^^^^^^^Skip 2ndtime ^NM       T T   NM^ 
-1:48-2:02- 
e|---------------------------------------------------------------------------| 
B|---------------------------------------------------------------------------| 
G|---------------------------------------------------------------------------| 
D|---------------------------------------------------------------------------| 
A|-------------9-7-9-6-9/10-9-7-9-6-9/10-9-7-9-6-9/10-9-9-9-12-12-12---------| 
E|0-0-0-0-0----9-7-9-6-9/10-9-7-9-6-9/10-9-7-9-6-9/10-9-9-9-12-12-12---------|   
A|0-0-0-0-0----9-7-9-6-9/10-9-7-9-6-9/10-9-7-9-6-9/10-9-9-9-12-12-12---------| 
-2:02-2:17- 'this is the day you changed my life out in Comac' 
B|---------------------------------------------------------------------------| 
G|---------------------------------------------------------------------------| 
D|---------------------------------------------------------------------------| 
A|------------------9-9-9-12-12-12---------------------9-9-9-12-12-12--------| 
E|------11-11-11-11-9-9-9-12-12-12---------11-11-11-11-9-9-9-12-12-12--------| 
A|1-1-1-11-11-11-11-9-9-9-12-12-12-1-1-1-1-11-11-11-11-9-9-9-12-12-12--------| 
  ^^^^^^^^^^^^^^^^^3X              ^^^^^^^^^^^^^^^^^^^3x 
-2:17-A brief chug pattern I forgot to tab-2:24- 
-2:24-2:31- 
e|---------------------------------------------------------------------------| 
B|---------------------------------------------------------------------------| 
G|---------------------------------------------------------------------------| 
D|---------------------------------------------------------------------------| 
A|---------------------------------------------------------------------------| 
E|1-111-3\4-1-111-1-111-3\4-1-111-1-111-3\4-1-111-1-111-3\4-1-111-1-111------| 
A|1-111-3\4-1-111-1-111-3\4-1-111-1-111-3\4-1-111-1-111-3\4-1-111-1-111-9/1--| 
    Pm^       Pm^   Pm^       Pm^   Pm^       Pm^   Pm^       Pm^   Pm^ 
-2:31-2:37- 
e|-------------------------------------|  
B|-------------------------------------| 
G|-------------------------------------| 
D|-------------------------------------| 
A|--------1-1-1---------1-11-- 
E|1-111-1-0-0-0-1-111-1-0-00-- 2X 
A|1-111-1-1-1-1-1-111-1-1-11-- 
    Pm^   Pm^^^   Pm^   Pm^^   
-2:37-2:54- 
e|---------------------------------------------------------------------------| 
B|---------------------------------------------------------------------------| 
G|---------------------------------------------------------------------------| 
D|-----------------------------------------------------------12-12-13--------| 
A|---------------------------------------------------------------------------| 
E|00-00-00-00-0--00-00-00-00-0--00-00-00-00-0--00-00-00-00-0-10-10-10--------| 
A|00-00-00-00-0--00-00-00-00-0--00-00-00-00-0--00-00-00-00-0-----------------| 
-3:11-3:38-                                    ^^^^^^^^^^^^^^^^^^^^^^X4 
e|---------------------------------------------------------------------------| 
B|---------------------------------------------------------------------12-11-| 
G|---------------------------------------------------------------------14-13-| 
D|---------------------------------------------------------------------------| 
A|1-1-1-111-1-1-111-1-1-111-1-1---------1-1-1-111-1-1-3-4-1-1-1-11-1-1-------| 
E|0-0-0-000-0-0-000-0-0-000-0-0---------0-0-0-000-0-0-----0-0-0-00-0-0-------| 
A|1-1-1-111-1-1-111-1-1-111-1-1-1-4-6/1-1-1-1-111-1-1-----1-1-1-11-1-1-------| 
Pm breakdown Play^2X    ^^^^^^^Skip 2ndtime ^NM       T T   NM^ 
-3:38-3:52- 
Guitar 1        Guitar 2 
e|-------------| E|----------------------------------------------------------| 
B|-------------| B|----------------------------20----20-----20---------------| 
G|-------------| G|----------------------------24----24-----24---------------| 
D|8--8/6-6-8-9-| D|----------------------------------------------------------| 
A|-------------| A|----------------------------------------------------------| 
E|6--6/4-4-6-7-| E|1-1--1-1--1-1--1-11-11--1-1---1-1----1-1----1-1-44-1------| 
A|-----------^-| A|1-1--1-1--1-1--1-11-11--1-1---1-1----1-1----1-1-44-1------| 
             ^Strum that a few times 
-3:52-4:20-'Who knew the truth?!' 
And if you got this far you can figure out the next chug pattern.Everything else they play at the end is above. 
With the exception of the ending tremolo= 
e|---------------------------------------------------------------------------| 
B|---------------------------------------------------------------------------| 
G|---------------------------------------------------------------------------| 
D|---------------------------------------------------------------------------| 
A|4-3-4-6--------------------------------------------------------------------| 
E|---------------------------------------------------------------------------| 
A|---------------------------------------------------------------------------| 
  T T T T 
*********************************** 
*When 11 are side by side on the top A it's played like 00, not the 11th fret. 
| T   Tremolo 
| PM  Palm mute 
| NM  Not palm muted 
| /   slide up 
| \   slide down 
| h   hammer-on 
| p   pull-off 
| ~   vibrato 
| +   harmonic 
| x   Mute note 
| b   Bend 
| pb  Pre-bend 
| br  Bend release 
| pbr Pre-bend release 
| brb Bend release bend 
| ^   Points to note(s) 
************************************ 

roll up this ad to continue

share this page

See Also: