E-Chords
Emery

The Cheval Glass(Tabs)

Emery

Tuning: Drop C 

INTRO/VERSE 1 

                        x2                  x2 
D|------------------------|-------------------| 
A|------------------------|-------------------| 
F|--9p0---9p0---9p0---9p0-|-------------12p0--| 
C|-10p0--10p0--10p0--10p0-|--7p0--10p0--------| 
G|-12p0--12p0--12p0--12p0-|-------------------| 
C|------------------------|-------------------| 


|-----------------------------------------------------------| 
|-12p0---------0h10p0---------13\12p0---------0h10p0--------| 
|---------9h12-----------9h12------------9h12-----------12~-| 
|------10-------------10--------------10-------------10-----| 
|-----------------------------------------------------------| 
|-----------------------------------------------------------| 

                  x2                       x7 
|-------------------|------------------------|-------------17+-| 
|-------------------|------------------------|-------------17+-| 
|-------------12p0--|--9p0---9p0---9p0---9p0-|--9p0---9p0--17+-| 
|--7p0--10p0--------|-10p0--10p0--10p0--10p0-|-10p0--10p0--17+-| 
|-------------------|-12p0--12p0--12p0--12p0-|-12p0--12p0--17+-| 
|-------------------|--0-----0-----0-----0---|--0-----0--------| 

        x4 PM   x4        x4 PM   x4      x3  
|---------|-------|---------|-------|-------|------| 
|---------|-------|---------|-------|-------|------| 
|---------|-------|---------|-------|-------|------| 
|---------|-0-0-0-|---------|-0-0-0-|-0-0-0-|-0----| 
|---------|-0-0-0-|---------|-0-0-0-|-0-0-0-|-0----| 
|-12-12-0-|-0-0-0-|-12-12-0-|-0-0-0-|-0-0-0-|-0----| 


CHORUS 
Listen to the song for the strum pattern. Should be straight forward. 


|------------|--------|-------------------|--------| 
|-14--17--20-|--------|-14-14-14/15/17-10-|--------| 
|--x---x---x-|--------|--x--x--x--------x-|--------| 
|-11--14--17-|-14--17-|-11-11-11/12/14--7-|-14--17-| 
|------------|--x---x-|-------------------|--x---x-| 
|------------|-12--15-|-------------------|-12--15-| 


|------------|----------------------------------|-------------------|---------| 
|-14--17--20-|-17-17-17/18-18-18-17-15-13-13-13-|-14-14-14/15/17-10-|-12------| 
|--x---x---x-|--x--x--x--x--x--x--x--x--x--x--x-|--x--x--x--------x-|--x------| 
|-11--14--17-|-14-14-14/15-15-15-14-12-10-10-10-|-11-11-11/12/14--7-|--9---12-| 
|------------|----------------------------------|-------------------|------12-| 
|------------|----------------------------------|-------------------|------12-| 


VERSE 2 

     x8 
|------|----------------------------------------|----------------------|----8----12-| 
|------|----8---8---3---3----13----13p12-12-----|----8---8-------------|-10------12-| 
|--9p0-|---9---9---4---4---12----12--------12---|---9---9---9-9h10p9---|-----9\7-12-| 
|-10p0-|-10--10---5---5--14----14------------14-|-10--10--9---------10-|----------9-| 
|-12p0-|----------------------------------------|----------------------|------------| 
|------|----------------------------------------|----------------------|------------| 

 Each x6             x6  x6   x6  x9 
|------------------|------------------| 
|--5---6-----------|--5---6-----------| 
|--5---7----9---5--|--5---7----9---5--| 
|--3---0---10---5--|--3---0---10---5--| 
|--3---0---10---7--|--3---0---10---7--| 
|--3---0---10---7--|--3---0---10---7--| 


CHORUS 

|------------|--------|-------------------|--------| 
|-14--17--20-|--------|-14-14-14/15/17-10-|--------| 
|--x---x---x-|--------|--x--x--x--------x-|--------| 
|-11--14--17-|-14--17-|-11-11-11/12/14--7-|-14--17-| 
|------------|--x---x-|-------------------|--x---x-| 
|------------|-12--15-|-------------------|-12--15-| 


|------------|----------------------------------|-------------------|---------| 
|-14--17--20-|-17-17-17/18-18-18-17-15-13-13-13-|-14-14-14/15/17-10-|-12------| 
|--x---x---x-|--x--x--x--x--x--x--x--x--x--x--x-|--x--x--x--------x-|--x------| 
|-11--14--17-|-14-14-14/15-15-15-14-12-10-10-10-|-11-11-11/12/14--7-|--9---12-| 
|------------|----------------------------------|-------------------|------12-| 
|------------|----------------------------------|-------------------|------12-| 


SOLO/BREAKDOWN/ENDING 

  x16  x8  x4  x4  x8  x4  x4  x8  x8   
|--------------------------------------|--10------12---8---8---6---5---5---5---5--| 
|--10---8---8---8---6---6---6--10--10--|--10--10---8---8---8---6---5---5---6---5--| 
|---9---9--10---9---9--10---9---9---9--|---9---9---9--10---9---9---9---5---7---7--| 
|----------------------------------10--|-------------------------------7----------| 
|--------------------------------------|------------------------------------------| 
|--------------------------------------|------------------------------------------| 

                      x2         x2 
|-----------------------|----------| 
|-----------------------|----------| 
|-----------------------|--8--8----| 
|--0-0-0--0-0-0--0-0-0--|---12-12--| 
|--0-0-0--0-0-0--0-0-0--|----------| 
|--0-0-0--0-0-0--0-0-0--|----------| 


|-----------------------|----------------|--------------------------| 
|-----------------------|--10-10-10--10--|--------------------------| 
|-----------------------|--10-10-10--10--|--------------------------| 
|--0-0-0--0-0-0--0-0-0--|---8--8--8--10--|--1-1-1--1-1-1--1-1-1--0--| 
|--0-0-0--0-0-0--0-0-0--|----------------|--1-1-1--1-1-1--1-1-1--0--| 
|--0-0-0--0-0-0--0-0-0--|----------------|--1-1-1--1-1-1--1-1-1--0--| 
 

roll up this ad to continue

share this page

See Also: