E-Chords
Emery

Inside Our Skin(Tabs)

Emery

Key: F
verse 1   
'This is what comes of the best...' 
 f|---------------------------------------------------------------------------| 
 C|---------------------------------------------------------------------------| 
G#|--5-5--5-5---10-10--10-10--------------9--9---9--9-------------------------|  X3 
 E|--7-7--7-7---10-10--10-10---8-8--8-8---10-10--10-10------------------------| 
A#|--8-8--8-8---8--8---8--8----8-8--8-8---7--7---7--7-------------------------| 
 F|----------------------------6-6--6-6---------------------------------------| 

'Amends for the time...'     | '..Given...' 
  Strum each for a measure |   Electric guitar 
 f|--------------------------|---------------1--------------0-----------------| 
 C|--------------------------|---------------3--------------3-----------------| 
G#|--------------------------|---------------2--------------2-----------------| 
 E|--8-----5-----8-----5-----|-----0-0--0-0--0----0-0--0-0--0-----------------| 
A#|--8-----5-----8-----5-----|-----0-0--0-0--0----0-0--0-0--0-----------------| 
 F|--6-----3-----6-----3-----|------------------------------------------------| 

Chorus 1 (RHYTHM) 
'We all, feel real...' 
  Strum each for 2 measures and keep playing the last chord until the bridge 
 f|--6-----3-----6-----3------------------------------------------------------| 
 C|--6-----3-----6-----3------------------------------------------------------| 
G#|--7-----3-----7-----3------------------------------------------------------| 
 E|--8-----5-----8-----5------------------------------------------------------| 
A#|--8-----5-----8-----5------------------------------------------------------| 
 F|--6-----3-----6-----3------------------------------------------------------| 

Chorus 1 (LEAD) 
(plays along with what's above) (play the ending note, 3, until the Chorus ends) 
 f|---------------------------------------------------------------------------| 
 C|--10-8--(X12)---8-6--(X12)----10--6--8--5---10--6--8--5--3-3-3-3-3...------| 
G#|---------------------------------------------------------------------------| 
 E|---------------------------------------------------------------------------| 
A#|---------------------------------------------------------------------------| 
 F|---------------------------------------------------------------------------| 

BRIDGE 
'If God is good...'  
  Strum each 6 times, but don't hold the notes out  
 f|---------------------------------------------------------------------------| 
 C|--3-----1------------------------------------------------------------------| 
G#|--2-----2-----2-----2------------------------------------------------------| 
 E|--0-----0-----3-----0------------------------------------------------------| 
A#|--0-----0-----0-----0------------------------------------------------------| 
 F|---------------------------------------------------------------------------| 

'You say you're good...' 
 f|--1---1---1---1---1-1--1---1---1-------------------------------------------| 
 C|--3---3---3---3---3-3--3---3---3-------------------------------------------| 
G#|--2---2---2---2---2-2--2---2---2-------------------------------------------| 
 E|--0---0---0---0---0-0--0---0---0-------------------------------------------| 
A#|--0---0---0---0---0-0--0---0---0-------------------------------------------| 
 F|---------------------------------------------------------------------------| 

Chorus 2 (RHYTHM) 
'We all, feel real...' 
  Strum each for 2 measures except the last two only for 1 measure 
 f|--6-----3-----6-----3--0--------------------------------------------------| 
 C|--6-----3-----6-----3--0--------------------------------------------------| 
G#|--7-----3-----7-----3--0--------------------------------------------------| 
 E|--8-----5-----8-----5--2--------------------------------------------------| 
A#|--8-----5-----8-----5--2--------------------------------------------------| 
 F|--6-----3-----6-----3--0--------------------------------------------------| 

Chorus 2 (LEAD)                 (the right half is just my interpretation, 
(plays along with what's above)  nothing is actually played on lead guitar here) 
 f|---------------------------------------------------------------------------| 
 C|--10-8-(X12)---8-6-(X12)----10--6--8--5---10--6--8--5--3-3-3-3-3-3-5-5-5-5-| 
G#|---------------------------------------------------------------------------| 
 E|---------------------------------------------------------------------------| 
A#|---------------------------------------------------------------------------| 
 F|---------------------------------------------------------------------------| 

verse 1 
'We will separate ourselves...' 
 f|---------------------------------------------------------------------------| 
 C|---------------------------------------------------------------------------| 
G#|--5-5--5-5---10-10--10-10--------------9--9---9--9-------------------------|  X4 
 E|--7-7--7-7---10-10--10-10---8-8--8-8---10-10--10-10------------------------| 
A#|--8-8--8-8---8--8---8--8----8-8--8-8---7--7---7--7-------------------------| 
 F|----------------------------6-6--6-6---------------------------------------| 

VARIATION VERSE 
'We will separate (We say that we're so misunderstood)...' 
 f|---------------------------------------------------------------------------| 
 C|---------------------------------------------------------------------------| 
G#|----------10-10-10---------------------------------------------------------| 
 E|---7-7-7--10-10-10--8-8-8--10-10-10----------------------------------------| 
A#|---7-7-7--8--8--8---8-8-8--10-10-10----------------------------------------| 
 F|---5-5-5------------6-6-6--8--8--8-----------------------------------------| 

VARIATION VERSE SOLO 
(plays along with what's above) 
 f|-8----8----6----6----5--5-5--5-5--6-8-8-6-5--------------------------------| 
 C|--8-6--8-6--6-5--6-5-----------------------8-------------------------------| 
G#|---------------------------------------------------------------------------|  
 E|---------------------------------------------------------------------------| 
A#|---------------------------------------------------------------------------| 
 F|---------------------------------------------------------------------------| 

 f|--12b13b12----------------13-12----12--12---12h13p12-----------------------| 
 C|----------13-10--13-10--10-------10--10--10---------13-11s10-11-10---------| 
G#|---------------12-----12------------------------------------------12-10----| 
 E|---------------------------------------------------------------------------| 
A#|---------------------------------------------------------------------------| 
 F|---------------------------------------------------------------------------| 

OUTRO 
'Given up...' 
 f|---------------------------------------------------------------------------|   
 C|------10----------------10-------------------------------------------------| 
G#|---10---10---(X4)----10---10---(X4)----------------------------------------| 
 E|--7--7--------------8--8---------------------------------------------------| 
A#|---------------------------------------------------------------------------|  \ 
 F|---------------------------------------------------------------------------|   \ 
                                                                                   X2 
 f|------8--------------------------------------------------------------------|   / 
 C|------10----------------10--------10--------8--------10--------------------|  / 
G#|---10---10---(X4)----10---10---10---10---10--10---10---8-------------------| 
 E|--7--7--------------8--8------8--8------8--8-----8--8----------------------| 
A#|---------------------------------------------------------------------------| 
 F|---------------------------------------------------------------------------| 

OUTRO KEYBOARD SOLO (I mean, if you want it) 
(plays along with what's above)  
 f|--5-----5------------------------------------------------------------------| 
 C|---6-5---5-3----1--5-6-3---------------------------------------------------| 
G#|--------------2-----------2-0----------------------------------------------|  
 E|------------------------------3--0-----------------------------------------| 
A#|---------------------------------------------------------------------------| 
 F|---------------------------------------------------------------------------| 

(this half of the keyboard solo plays when 'Wisdom light my way...' starts below)  
 f|--5-----------------5------------------------------------------------------| 
 C|---6-5-2---5-6-3-----6-5---------------------------------------------------| 
G#|-----------------2-------2-0-----------------------------------------------|  
 E|-----------------------------3--0------------------------------------------| 
A#|---------------------------------------------------------------------------| 
 F|---------------------------------------------------------------------------| 

'Wisdom light my way...' 
  (add this second guitar on top of the 'Given up...' tab from above) 
 f|---------------------------------------------------------------------------| 
 C|--3-3--3-3------------------3-3--3-3---------------------------------------| 
G#|--2-2--2-2------------------2-2--2-2---------------------------------------|  
 E|--0-0--0-0-----8-8--8-8-----0-0--0-0-----8-8--8-8----8---------------------| 
A#|--0-0--0-0-----8-8--8-8-----0-0--0-0-----8-8--8-8----8---------------------| 
 F|---------------6-6--6-6------------------6-6--6-6----6---------------------| 

'WISDOM LIGHT MY WAY!...' (the 'Given up...' tab guitar part ends here)                               
 f|---------------------------------------------------------------------------| 
 C|--3-3-3-3-3-----------------3-3-3-3-3--------------------------------------|  
G#|--2-2-2-2-2-----------------2-2-2-2-2--------------------------------------|  
 E|--0-0-0-0-0----8-8-8-8-8----0-0-0-0-0----8-8-8-8-8-------------------------| 
A#|--0-0-0-0-0----8-8-8-8-8----0-0-0-0-0----8-8-8-8-8-------------------------| 
 F|---------------6-6-6-6-6-----------------6-6-6-6-6-------------------------| 

'REFINING ME!...' 
 f|---------------------------------------------------------------------------| 
 C|--3--3-3--X-X------------3-------------------------------------------------| 
G#|--2--2-2--X-X----(X7)----2-------------------------------------------------| 
 E|--0--0-0--X-X------------0-------------------------------------------------| 
A#|--0--0-0--X-X------------0-------------------------------------------------| 
 F|---------------------------------------------------------------------------| 
 

roll up this ad to continue

share this page

See Also: