E-Chords
Elena Siegman

Pareidolia(Tabs)

Elena Siegman

roll up this ad to continue

Intro: 

    S S S S S S S S S S S S S S S S S S S S S S S S S S S S Q 
d |---------------------------------------------------------=--------| 
A |---------------------------------------------------------=--------| 
F |---------------------------------------------------------=--------| 
C |---------------------------------------------------------=--------| 
G |---------------------------------------------------------=--------| 
D |-1-0-2-0-3-2-0-1-0-2-0-3-2-0-1-4-1-0-2-0-3-2-0-1-0-2-0-3-=--------| 
A |---------------------------------------------------------=--------| 
C#|---------------------------------------------------------=--------| 


    S S S S S S S S S S S S S S S S S S S S S S S S S S S S S S S S     - 
d |------------------------------------------------------------------|   | 
A |------------------------------------------------------------------|   | 
F |------------------------------------------------------------------|   | 
C |------------------------------------------------------------------|   | 
G |---------------------------------------------------------------4--|   |--  x4 
D |------------------------------------------------------------------|   | 
A |-1-0-2-0-3-2-0-1-0-2-0-3-2-0-1-4-1-0-2-0-3-2-0-1-0-2-0-3-2-0-1----|   | 
C#|------------------------------------------------------------------|   | 
                                                                        - 

    S S S S S S S S S S S S S S S S S S S S S S S S S S S S S S S S 
d |------------------------------------------------------------------| 
A |------------------------------------------------------------------| 
F |------------------------------------------------------------------| 
C |------------------------------------------------------------------| 
G |-------5-------------------------------5-------4-3-----2----------| 
D |-4-------4-----------------5-----4-------4---------4-----3-----5--| 
A |---3-2-----3-2-4-3-2-5-4-3---4-3---3-2-----3-2-------5-----5-4----| 
C#|------------------------------------------------------------------| 


    S S S S S S S S S S S S S S S S S S S S S S S S S S S S S S S S 
d |------------------------------------------------------------------| 
A |------------------------------------------------------------------| 
F |------------------------------------------------------------------| 
C |------------------------------------------------------------------| 
G |-------5-------------------------------5-------5------------------| 
D |-4-------4-----------------5-----4-------4---------4--------------| 
A |---3-2-----3-2-4-3-2-5-4-3---4-3---3-2-----3-2-------5-4-3-2-1-0--| 
C#|------------------------------------------------------------------| 


    S S S S S S S S S S S S S S S S S S S S S S S S S S S S S S S S 
d |---------=-------------------------------=------------------------| 
A |---------=-------------------------------=------------------------| 
F |---------=-------------------------------=------------------------| 
C |---------=-------------------------------=------------------------| 
G |---------=-------------------------------=------------------------| 
D |-4-4-4-4-=-4-4-4-5-5-5-2-2-2-5-5-4-4-4-4-=-4-4-4-7-7-7-6-6-6-5-5--| 
A |-2-2-2-2-=-2-2-2-3-3-3-0-0-0-3-3-2-2-2-2-=-2-2-2-5-5-5-4-4-4-3-3--| 
C#|---------=-------------------------------=------------------------| 
PM| . . . .   . . . . . . . . . . . . . . .   . . . . . . . . . . . 

    S S S S S S S S S S S S S S S S S S S S S S S S S S S S S S S S 
d |---------=-------------------------------=------------------------| 
A |---------=-------------------------------=------------------------| 
F |---------=-------------------------------=------------------------| 
C |---------=-------------------------------=------------------------| 
G |---------=-------------------------------=-------7-7-7------------| 
D |-4-4-4-4-=-4-4-4-5-5-5-2-2-2-5-5-4-4-4-4-=-4-4-4-5-5-5-6-6-6-5-5--| 
A |-2-2-2-2-=-2-2-2-3-3-3-0-0-0-3-3-2-2-2-2-=-2-2-2-------4-4-4-3-3--| 
C#|---------=-------------------------------=------------------------| 
PM| . . . .   . . . . . . . . . . . . . . .   . . . . . . . . . . . 


Verse: 

    S S S S S S S S S S S S S S S S S S S S S S S S S S S S S S S S     - 
d |---------=-------------------------------=------------------------|   | 
A |---------=-------------------------------=------------------------|   | 
F |---------=-------------------------------=------------------------|   | 
C |---------=-------------------------------=------------------------|   | 
G |---------=-------------------------------=------------------------|   | 
D |-4-4-4-4-=-4-4-4-5-5-5-2-2-2-5-5-4-4-4-4-=-4-4-4-7-7-7-6-6-6-5-5--|   | 
A |-2-2-2-2-=-2-2-2-3-3-3-0-0-0-3-3-2-2-2-2-=-2-2-2-5-5-5-4-4-4-3-3--|   | 
C#|---------=-------------------------------=------------------------|   | 
PM| . . . .   . . . . . . . . . . . . . . .   . . . . . . . . . . .      | 
                                                                         | 
                                                                         | 
                                                                         |--  x2 
    S S S S S S S S S S S S S S S S S S S S S S S S S S S S S S S S      | 
d |---------=-------------------------------=------------------------|   | 
A |---------=-------------------------------=------------------------|   | 
F |---------=-------------------------------=------------------------|   | 
C |---------=-------------------------------=------------------------|   | 
G |---------=-------------------------------=-------7-7-7------------|   | 
D |-4-4-4-4-=-4-4-4-5-5-5-2-2-2-5-5-4-4-4-4-=-4-4-4-5-5-5-6-6-6-5-5--|   | 
A |-2-2-2-2-=-2-2-2-3-3-3-0-0-0-3-3-2-2-2-2-=-2-2-2-------4-4-4-3-3--|   | 
C#|---------=-------------------------------=------------------------|   | 
PM| . . . .   . . . . . . . . . . . . . . .   . . . . . . . . . . .     - 

    E.    E.    E   E.    E.    E   E.    E.    E   E.    E.    E. 
d |------------------------------------------------------------------| 
A |------------------------------------------------------------------| 
F |------------------------------------------------------------------| 
C |------------------------------------------------------------------| 
G |-4-----4-----4---5-----2-----5---4-----4-----4---7-----7-----7----| 
D |-4-----4-----4---5-----2-----5---4-----4-----4---7-----7-----7----| 
A |-2-----2-----2---3-----0-----3---2-----2-----2---5-----5-----5----| 
C#|------------------------------------------------------------------| 


    E.    E.    E.  E     E.    E   E.    E.    E.    S S S S S S S     Q. 
d |-----------------------------------------------------=-----=------|--=------------| 
A |-----------------------------------------------------=-----=------|--=------------| 
F |-----------------------------------------------------=-----=------|--=------------| 
C |-----------------------------------------------------=-----=------|--=------------| 
G |-4-----4-----4---5-----2-----5---4-----4-----5-----2-=-2-2-=-2-2--|--=------------| 
D |-4-----4-----4---5-----2-----5---4-----4-----5-----2-=-2-2-=-2-2--|--=------------| 
A |-2-----2-----2---3-----0-----3---2-----2-----3-----0-=-0-0-=-0-0--|--=------------| 
C#|-----------------------------------------------------=-----=------|--=------------| 

Chorus: 

    S S S S S S S S S S S S S S S S S S S S S S S S S S S S S S S S     - 
d |---=-----=-----=-----=-------------=-----=-----=-----=------------|   | 
A |---=-----=-----=-----=-------------=-----=-----=-----=------------|   | 
F |---=-----=-----=-----=-------------=-----=-----=-----=------------|   | 
C |---=-----=-----=-----=-------------=-----=-----=-----=------------|   | 
G |---=-----=-----=-----=-------------=-----=-----=-----=------------|   | 
D |-6-=-6-6-=-6-6-=-6-6-=-6-6-6-6-6-5-=-5-5-=-5-5-=-5-5-=------------|   | 
A |-4-=-4-4-=-4-4-=-4-4-=-4-4-4-4-4-3-=-3-3-=-3-3-=-3-3-=-3-6-5-3-0--|   | 
C#|---=-----=-----=-----=-------------=-----=-----=-----=------------|   | 
PM|                       . . . . .                                      | 
                                                                         | 
                                                                         |--  x2 
                                                                         | 
    S S S S S S S S S S S S S S S S S S S S S S S S S S S S S S S S      | 
d |---=-----=-----=-----=-------------=-----=-----=-----=------------|   | 
A |---=-----=-----=-----=-------------=-----=-----=-----=------------|   | 
F |---=-----=-----=-----=-------------=-----=-----=-----=------------|   | 
C |---=-----=-----=-----=-------------=-----=-----=-----=------------|   | 
G |---=-----=-----=-----=-----------3-=-3-3-=-3-3-=-3-3-=-3-3-3-3-3--|   | 
D |-2-=-2-2-=-2-2-=-2-2-=-----------1-=-1-1-=-1-1-=-1-1-=-1-1-1-1-1--|   | 
A |-0-=-0-0-=-0-0-=-0-0-=-0-2-3-2-0---=-----=-----=-----=------------|   | 
C#|---=-----=-----=-----=-------------=-----=-----=-----=------------|   | 
PM|                                                       . . . . .     - 


Post-Chorus: 

    S S S S S S S S S S S S S S S S S S S S S S S S S S S S S S S S 
d |------------------------------------------------------------------| 
A |------------------------------------------------------------------| 
F |------------------------------------------------------------------| 
C |------------------------------------------------------------------| 
G |---------------------------------------------------------------4--| 
D |-1-0-2-0-3-2-0----------------------------------------------------| 
A |---------------1-0-2-0-3-2-0-1-4-1-0-2-0-3-2-0-1-0-2-0-3-2-0-1----| 
C#|------------------------------------------------------------------| 

                                                  \/  \/  \/~> 
    S S S S S S S S S S S S S S S S S S S S S S S E   E   E 
d |------------------------------------------------------------------| 
A |------------------------------------------------------------------| 
F |------------------------------------------------------------------| 
C |------------------------------------------------------------------| 
G |-----------------------------------------------5---4---3----------| 
D |-----------------------------------------------5---4---3----------| 
A |-1-0-2-0-3-2-0-1-0-2-0-3-2-0-1-4-1-0-2-0-3-2-0-3---2---1----------| 
C#|------------------------------------------------------------------| 

Note: The powerchords at the end here are whammy barred down, and then the last one is  
released slowly. 


verse 2: 

    S S S S S S S S S S S S S S S S S S S S S S S S S S S S S S S S 
d |---------=-------------------------------=------------------------| 
A |---------=-------------------------------=------------------------| 
F |---------=-------------------------------=------------------------| 
C |---------=-------------------------------=------------------------| 
G |---------=-------------------------------=------------------------| 
D |-4-4-4-4-=-4-4-4-5-5-5-2-2-2-5-5-4-4-4-4-=-4-4-4-7-7-7-6-6-6-5-5--| 
A |-2-2-2-2-=-2-2-2-3-3-3-0-0-0-3-3-2-2-2-2-=-2-2-2-5-5-5-4-4-4-3-3--| 
C#|---------=-------------------------------=------------------------| 
PM| . . . .   . . . . . . . . . . . . . . .   . . . . . . . . . . . 

    S S S S S S S S S S S S S S S S S S S S S S S S S S S S S S S S 
d |---------=-------------------------------=------------------------| 
A |---------=-------------------------------=------------------------| 
F |---------=-------------------------------=------------------------| 
C |---------=-------------------------------=------------------------| 
G |---------=-------------------------------=-------7-7-7------------| 
D |-4-4-4-4-=-4-4-4-5-5-5-2-2-2-5-5-4-4-4-4-=-4-4-4-5-5-5-6-6-6-5-5--| 
A |-2-2-2-2-=-2-2-2-3-3-3-0-0-0-3-3-2-2-2-2-=-2-2-2-------4-4-4-3-3--| 
C#|---------=-------------------------------=------------------------| 
PM| . . . .   . . . . . . . . . . . . . . .   . . . . . . . . . . . 


    E.    E.    E   E.    E.    E   E.    E.    E   E.    E.    E. 
d |------------------------------------------------------------------| 
A |------------------------------------------------------------------| 
F |------------------------------------------------------------------| 
C |------------------------------------------------------------------| 
G |-4-----4-----4---5-----2-----5---4-----4-----4---7-----7-----7----| 
D |-4-----4-----4---5-----2-----5---4-----4-----4---7-----7-----7----| 
A |-2-----2-----2---3-----0-----3---2-----2-----2---5-----5-----5----| 
C#|------------------------------------------------------------------| 


    E.    E.    E.  E     E.    E   E.    E.    E.    E.    S E   S 
d |-----------------------------------------------------------=------| 
A |-----------------------------------------------------------=------| 
F |-----------------------------------------------------------=------| 
C |-----------------------------------------------------------=------| 
G |-4-----4-----4---5-----2-----5---4-----4-----4-----5-----2-=---2--| 
D |-4-----4-----4---5-----2-----5---4-----4-----4-----5-----2-=---2--| 
A |-2-----2-----2---3-----0-----3---2-----2-----2-----3-----0-=---0--| 
C#|-----------------------------------------------------------=------| 


    E   S E   S E   E   E 
d |-=-----=-----=------------| 
A |-=-----=-----=------------| 
F |-=-----=-----=------------| 
C |-=-----=-----=------------| 
G |-=---2-=---2-=------------|   (This is a 3/4 bar) 
D |-=---2-=---2-=---2---2----| 
A |-=---0-=---0-=---0---0----| 
C#|-=-----=-----=------------| 
PM|                 .   . 


Chorus 2: 


    S S S S S S S S S S S S S S S S S S S S S S S S S S S S S S S S     - 
d |---=-----=-----=-----=-------------=-----=-----=-----=------------|   | 
A |---=-----=-----=-----=-------------=-----=-----=-----=------------|   | 
F |---=-----=-----=-----=-------------=-----=-----=-----=------------|   | 
C |---=-----=-----=-----=-------------=-----=-----=-----=------------|   | 
G |---=-----=-----=-----=-------------=-----=-----=-----=------------|   | 
D |-6-=-6-6-=-6-6-=-6-6-=-6-6-6-6-6-5-=-5-5-=-5-5-=-5-5-=------------|   | 
A |-4-=-4-4-=-4-4-=-4-4-=-4-4-4-4-4-3-=-3-3-=-3-3-=-3-3-=-3-6-5-3-0--|   | 
C#|---=-----=-----=-----=-------------=-----=-----=-----=------------|   | 
PM|                       . . . . .                                      | 
                                                                         | 
                                                                         |--  x2 
                                                                         | 
    S S S S S S S S S S S S S S S S S S S S S S S S S S S S S S S S      | 
d |---=-----=-----=-----=-------------=-----=-----=-----=------------|   | 
A |---=-----=-----=-----=-------------=-----=-----=-----=------------|   | 
F |---=-----=-----=-----=-------------=-----=-----=-----=------------|   | 
C |---=-----=-----=-----=-------------=-----=-----=-----=------------|   | 
G |---=-----=-----=-----=-----------3-=-3-3-=-3-3-=-3-3-=-3-3-3-3-3--|   | 
D |-2-=-2-2-=-2-2-=-2-2-=-----------1-=-1-1-=-1-1-=-1-1-=-1-1-1-1-1--|   | 
A |-0-=-0-0-=-0-0-=-0-0-=-0-2-3-2-0---=-----=-----=-----=------------|   | 
C#|---=-----=-----=-----=-------------=-----=-----=-----=------------|   | 
PM|                                                       . . . . .     - 


Bridge: 


    S S S S S S S S S S S S S S S S S S S S S S S S S S S S S S S S     - 
d |---=-----=-----=-----=-----=-------=-----=-----=-----=-----=------|   | 
A |---=-----=-----=-----=-----=-------=-----=-----=-----=-----=------|   | 
F |---=-----=-----=-----=-----=-------=-----=-----=-----=-----=------|   | 
C |---=-----=-----=-----=-----=-------=-----=-----=-----=-----=------|   | 
G |---=-----=-----=-----=-----=-------=-----=-----=-----=-----=------|   | 
D |-2-=-2-2-=-2-2-=-2-2-=-2-2-=-2-2-6-=-6-6-=-6-6-=-6-6-=-6-6-=-6-6--|   | 
A |-0-=-0-0-=-0-0-=-0-0-=-0-0-=-0-0-4-=-4-4-=-4-4-=-4-4-=-4-4-=-4-4--|   | 
C#|---=-----=-----=-----=-----=-------=-----=-----=-----=-----=------|   | 
                                                                         | 
                                                                         | 
                                                                         |--  x3 
                                                                         | 
    S S S S S S S S S S S S S S S S S S S S S S S S S S S S S S S S      | 
d |---=-----=-----=-----=-----=-------=-----=-----=-----=------------|   | 
A |---=-----=-----=-----=-----=-------=-----=-----=-----=------------|   | 
F |---=-----=-----=-----=-----=-------=-----=-----=-----=------------|   | 
C |---=-----=-----=-----=-----=-------=-----=-----=-----=------------|   | 
G |---=-----=-----=-----=-----=-----8-=-8-8-=-8-8-=-8-8-=------------|   | 
D |-9-=-9-9-=-9-9-=-9-9-=-9-9-=-9-9-6-=-6-6-=-6-6-=-6-6-=-6-7-6-4-2--|   | 
A |-7-=-7-7-=-7-7-=-7-7-=-7-7-=-7-7---=-----=-----=-----=------------|   | 
C#|---=-----=-----=-----=-----=-------=-----=-----=-----=------------|   | 
                                                                        - 

    E   E   E   S E   E   S E   E   E   E   E   S E   E   S E   E 
d |------------------------------------------------------------------| 
A |------------------------------------------------------------------| 
F |------------------------------------------------------------------| 
C |------------------------------------------------------------------| 
G |------------------------------------------------------------------| 
D |------------------------------------------------------------------| 
A |------------------------------------------------------------------| 
C#|-0---2---2---0-2---2---0-2---0---0---3---3---0-3---3---0-3---0----| 


    E   E   E   S E   E   S E   E   E   E   E   S E   E   S E   E 
d |------------------------------------------------------------------| 
A |------------------------------------------------------------------| 
F |------------------------------------------------------------------| 
C |------------------------------------------------------------------| 
G |------------------------------------------------------------------| 
D |------------------------------------------------------------------| 
A |------------------------------------------------------------------| 
C#|-0---5---5---0-5---5---0-5---0---0---3---3---0-3---3---0-3---0----| 


    E   E   E   S E   E   S E   E   E   E   E   S E   E   S E   E 
d |------------------------------------------------------------------| 
A |------------------------------------------------------------------| 
F |------------------------------------------------------------------| 
C |------------------------------------------------------------------| 
G |------------------------------------------------------------------| 
D |------------------------------------------------------------------| 
A |------------------------------------------------------------------| 
C#|-0---2---2---0-2---2---0-2---0---0---3---3---0-3---3---0-3---0----| 


    E   E   E   S E   E   S E   E   E   E   E   S E   E   S S S S S 
d |------------------------------------------------------------------| 
A |------------------------------------------------------------------| 
F |------------------------------------------------------------------| 
C |------------------------------------------------------------------| 
G |------------------------------------------------------------------| 
D |------------------------------------------------------------------| 
A |------------------------------------------------------------------| 
C#|-0---2---2---0-2---2---0-2---0---0---3---3---0-3---3---0-5-3-2-0--| 


    S S S Q       S S S Q.          S S S Q       S S S Q.              - 
d |------------------------------------------------------------------|   | 
A |------------------------------------------------------------------|   | 
F |------------------------------------------------------------------|   | 
C |------------------------------------------------------------------|   | 
G |-------8------(8)----8-----------------9------(9)----9------------|   | 
D |-------8------(8)----8-----------------9------(9)----9------------|   | 
A |-------6------(6)----6-----------------7------(7)----7------------|   | 
C#|-0-0-0-----------0-0-------------0-0-0-----------0-0--------------|   | 
PM| . . .           . .             . . .           . .                  | 
                                                                         | 
                                                                         |--  x4 
                                                                         | 
    S S S Q       S S S Q.          S S S Q       S S S Q.               | 
d |------------------------------------------------------------------|   | 
A |------------------------------------------------------------------|   | 
F |------------------------------------------------------------------|   | 
C |------------------------------------------------------------------|   | 
G |-------11----(11)----11----------------9------(9)----9------------|   | 
D |-------11----(11)----11----------------9------(9)----9------------|   | 
A |-------9------(9)----9-----------------7------(7)----7------------|   | 
C#|-0-0-0-----------0-0-------------0-0-0-----------0-0--------------|   | 
PM| . . .           . .             . . .           . .                 - 

    S S S S S S S S S S S S S S S S 
d |-------------------------------=--| 
A |-------------------------------=--| 
F |-------------------------------=--| 
C |-------------------------------=--| 
G |-6-6-6-6-6-6-6-6-6-6-6-6-6-6-6-=--| 
D |-6-6-6-6-6-6-6-6-6-6-6-6-6-6-6-=--| 
A |-4-4-4-4-4-4-4-4-4-4-4-4-4-4-4-=--| 
C#|-------------------------------=--| 


Final Chorus + Outro: 


    S S S S S S S S S S S S S S S S S S S S S S S S S S S S S S S S     - 
d |---=-----=-----=-----=-------------=-----=-----=-----=------------|   | 
A |---=-----=-----=-----=-------------=-----=-----=-----=------------|   | 
F |---=-----=-----=-----=-------------=-----=-----=-----=------------|   | 
C |---=-----=-----=-----=-------------=-----=-----=-----=------------|   | 
G |---=-----=-----=-----=-------------=-----=-----=-----=------------|   | 
D |-6-=-6-6-=-6-6-=-6-6-=-6-6-6-6-6-5-=-5-5-=-5-5-=-5-5-=------------|   | 
A |-4-=-4-4-=-4-4-=-4-4-=-4-4-4-4-4-3-=-3-3-=-3-3-=-3-3-=-3-6-5-3-0--|   | 
C#|---=-----=-----=-----=-------------=-----=-----=-----=------------|   | 
PM|                       . . . . .                                      | 
                                                                         | 
                                                                         |--  x4 
                                                                         | 
    S S S S S S S S S S S S S S S S S S S S S S S S S S S S S S S S      | 
d |---=-----=-----=-----=-------------=-----=-----=-----=------------|   | 
A |---=-----=-----=-----=-------------=-----=-----=-----=------------|   | 
F |---=-----=-----=-----=-------------=-----=-----=-----=------------|   | 
C |---=-----=-----=-----=-------------=-----=-----=-----=------------|   | 
G |---=-----=-----=-----=-----------3-=-3-3-=-3-3-=-3-3-=-3-3-3-3-3--|   | 
D |-2-=-2-2-=-2-2-=-2-2-=-----------1-=-1-1-=-1-1-=-1-1-=-1-1-1-1-1--|   | 
A |-0-=-0-0-=-0-0-=-0-0-=-0-2-3-2-0---=-----=-----=-----=------------|   | 
C#|---=-----=-----=-----=-------------=-----=-----=-----=------------|   | 
PM|                                                       . . . . .     - 


Piano comes in here 


    S S S S S S S S S S S S S S S S S S S S S S S S S S S S S S S S     - 
d |---=-----=-----=-----=-------------=-----=-----=-----=------------|   | 
A |---=-----=-----=-----=-------------=-----=-----=-----=------------|   | 
F |---=-----=-----=-----=-------------=-----=-----=-----=------------|   | 
C |---=-----=-----=-----=-------------=-----=-----=-----=------------|   | 
G |---=-----=-----=-----=-------------=-----=-----=-----=------------|   | 
D |-6-=-6-6-=-6-6-=-6-6-=-6-6-6-6-6-5-=-5-5-=-5-5-=-5-5-=------------|   | 
A |-4-=-4-4-=-4-4-=-4-4-=-4-4-4-4-4-3-=-3-3-=-3-3-=-3-3-=-3-6-5-3-0--|   | 
C#|---=-----=-----=-----=-------------=-----=-----=-----=------------|   | 
PM|                       . . . . .                                      | 
                                                                         | 
                                                                         |--  Repeat  
this while fading out 
                                                                         | 
    S S S S S S S S S S S S S S S S S S S S S S S S S S S S S S S S      | 
d |---=-----=-----=-----=-------------=-----=-----=-----=------------|   | 
A |---=-----=-----=-----=-------------=-----=-----=-----=------------|   | 
F |---=-----=-----=-----=-------------=-----=-----=-----=------------|   | 
C |---=-----=-----=-----=-------------=-----=-----=-----=------------|   | 
G |---=-----=-----=-----=-----------3-=-3-3-=-3-3-=-3-3-=-3-3-3-3-3--|   | 
D |-2-=-2-2-=-2-2-=-2-2-=-----------1-=-1-1-=-1-1-=-1-1-=-1-1-1-1-1--|   | 
A |-0-=-0-0-=-0-0-=-0-0-=-0-2-3-2-0---=-----=-----=-----=------------|   | 
C#|---=-----=-----=-----=-------------=-----=-----=-----=------------|   | 
PM|                                                       . . . . .     - 

--------------------------------------END---------------------------------------------- 

This bit can be played with an octave shifting pedal: 


    E   E   E   S E   E   S E   E   E   E   E   S E   E   S E   E 
d |------------------------------------------------------------------| 
A |------------------------------------------------------------------| 
F |------------------------------------------------------------------| 
C |------------------------------------------------------------------| 
G |------------------------------------------------------------------| 
D |------------------------------------------------------------------| 
A |------------------------------------------------------------------| 
C#|-0---2---2---0-2---2---0-2---0---0---3---3---0-3---3---0-3---0----| 


    E   E   E   S E   E   S E   E   E   E   E   S E   E   S E   E 
d |------------------------------------------------------------------| 
A |------------------------------------------------------------------| 
F |------------------------------------------------------------------| 
C |------------------------------------------------------------------| 
G |------------------------------------------------------------------| 
D |------------------------------------------------------------------| 
A |------------------------------------------------------------------| 
C#|-0---5---5---0-5---5---0-5---0---0---3---3---0-3---3---0-3---0----| 


    E   E   E   S E   E   S E   E   E   E   E   S E   E   S E   E 
d |------------------------------------------------------------------| 
A |------------------------------------------------------------------| 
F |------------------------------------------------------------------| 
C |------------------------------------------------------------------| 
G |------------------------------------------------------------------| 
D |------------------------------------------------------------------| 
A |------------------------------------------------------------------| 
C#|-0---2---2---0-2---2---0-2---0---0---3---3---0-3---3---0-3---0----| 


    E   E   E   S E   E   S E   E   E   E   E   S E   E   S S S S S 
d |------------------------------------------------------------------| 
A |------------------------------------------------------------------| 
F |------------------------------------------------------------------| 
C |------------------------------------------------------------------| 
G |------------------------------------------------------------------| 
D |------------------------------------------------------------------| 
A |------------------------------------------------------------------| 
C#|-0---2---2---0-2---2---0-2---0---0---3---3---0-3---3---0-5-3-2-0--| 


Just use the pedal to shift one octave down and play this: 


    E   E   E   S E   E   S E   E   E   E   E   S E   E   S E   E 
d |------------------------------------------------------------------| 
A |------------------------------------------------------------------| 
F |------------------------------------------------------------------| 
C |------------------------------------------------------------------| 
G |------------------------------------------------------------------| 
D |------------------------------------------------------------------| 
A |-4---6---6---4-6---6---4-6---4---4---7---7---4-7---7---4-7---4----| 


    E   E   E   S E   E   S E   E   E   E   E   S E   E   S E   E 
d |------------------------------------------------------------------| 
A |------------------------------------------------------------------| 
F |------------------------------------------------------------------| 
C |------------------------------------------------------------------| 
G |------------------------------------------------------------------| 
D |------------------------------------------------------------------| 
A |-4---9---9---4-9---9---4-9---4---4---7---7---4-7---7---4-7---4----| 


    E   E   E   S E   E   S E   E   E   E   E   S E   E   S E   E 
d |------------------------------------------------------------------| 
A |------------------------------------------------------------------| 
F |------------------------------------------------------------------| 
C |------------------------------------------------------------------| 
G |------------------------------------------------------------------| 
D |------------------------------------------------------------------| 
A |-4---6---6---4-6---6---4-6---4---4---7---7---4-7---7---4-7---4----| 


    E   E   E   S E   E   S E   E   E   E   E   S E   E   S S S S S 
d |------------------------------------------------------------------| 
A |------------------------------------------------------------------| 
F |------------------------------------------------------------------| 
C |------------------------------------------------------------------| 
G |------------------------------------------------------------------| 
D |------------------------------------------------------------------| 
A |-4---6---6---4-6---6---4-6---4---4---7---7---4-7---7---4-9-7-6-4--| 

 
share this page

See Also: