E-Chords
Elefante

La Que Se Fue(Tabs)

Elefante

roll up this ad to continue

Key: C
Me parece que esta es una de las mejores rolas de elefante, y se escucha excelente en guitarra. 

Intro: 
                                                                      

|---0---1---3-|---1---0--|---1---3---5-|---3---1---| 
|-------------|----------|-------------|-----------| 
|-0---2---4---|-2---0----|-2---4---5---|-4---2-----| 
|-------------|----------|-------------|-----------| 
|-------------|----------|-------------|-----------| 
|-------------|----------|-------------|-----------| 

Verso 1 
     
  C                         A#                        Dm  
|-----0------------0-----|--------------------------|-----1---1---0---|-------1--| 
|-----1------------1-----|------3--------------3----|-----3-----------|--3----3--| 
|-----0------------0-----|------3--------------3----|-----2-0---0---2-|-------2--| 
|------------------------|------3--------------3----|--0--------------|----------| 
|-3----------------------|--1-----------------------|-----------------|-----0----| 
|-----------3------------|--------------1-----------|-----------------|----------| 
  Todo lo  que   yo  buscaba         estaba   en   ella  

  C                      Gm               F 
|-----0------------0-----|---------------|--------5---3---|-1-----------| 
|-----1------------1-----|-----3------3--|----1-----------|----1-----1--| 
|-----0------------0-----|-----3------3--|----2-5---3---2-|----2-----2--| 
|------------------------|-----5------5--|----3-----------|----3-----3--| 
|-3----------------------|-----5---5-----|----3-----------|----3--3--3--| 
|-----------3------------|-3-------------|-1--------------|-1-----------| 
    pero                 desapareció  

 Gm               F                 C               Dm 
|----------------|----------------|-----0-------0--|----1-------1--| 
|-----3-------3--|-----1-------1--|-----1-------1--|----3-------3--| 
|-----3-------3--|-----2-------2--|-----3-------3--|----2-------2--| 
|-----5-------5--|-----3-------3--|----------------|-0-------------| 
|-----5---5---5--|-----3---3---3--|--3-------------|---------0-----| 
|-3--------------|-1--------------|---------3------|---------------| 
       un  mal día    sin pensarlo    se   largo  como  qui- 

 F                  Am                 C         
|------5-----------|--------8---------|-----0-1---0-1--0--|---0-----------------| 
|-------------5----|------------------|----------------1--|---1---------1-------| 
|---5---------5----|-----9------------|-----0-2---0-2-----|-------------0-------| 
|-------------7----|------------------|-------------------|---------------------| 
|-3----------------|--7---------------|--0----------------|---------------------| 
|---------5--------|------------------|-------------------|--------5------------| 
 siera que no me  doliera  esta canción              ay, ay, ay, si su- 


|------------------|---------------| 
|--------3------3--|--3-¯----------| 
|--------3------3--|--3-¯----------| 
|--------3------3--|--3-¯----------| 
|--1---------------|---------------| 
|------------1-----|---------------| 
 piera            ay, ay, ay 

Dm             F               C            
Que me esta llevando la tristeza  e|-------------------------| 
                                  B|--4/5?5---4/5?5-----1-3--| 
                                  G|--4/5-5---4/5-5-0-2------| 
Dm             F               C 
Que me estoy bebiendo este dolor  e|---------------------------| 
                                  B|--4/5?5---4/5-?5-8--6--5---| 
                                  G|--4/5-5---4/5--5-9--7--5---| 
Gm             F             Am 
Que mi vida ya esta casi muerta 
                C 
Ay, ay, ay si supieras 
C              A#                 Dm 
El destino me cobro mas de la cuenta 
C         G        Dm   
No me tuvo compasión 
Gm           F         C               Dm  
Y aunque dicen que de amor nadie se enferma 
           F                Am       
Como quisiera que no me doliera 
          C 
Esta canción 
                 A#9   
Ay, ay, ay si supieras D|--8-8-8-8-8---8--| 
                       A|--8-8-8-8-8---8--| 
                       E|--6-6-6-6-6---6--| 

Dm             F               C            
Que me esta llevando la tristeza  e|-------------------------| 
                                  B|--4/5?5---4/5?5-----1-3--| 
                                  G|--4/5-5---4/5-5-0-2------| 
Dm             F               C 
Que me estoy bebiendo este dolor  e|---------------------------| 
                                  B|--4/5?5---4/5-?5-8--6--5---| 
                                  G|--4/5-5---4/5--5-9--7--5---| 
Gm             F             Am 
Que mi vida ya esta casi muerta 
                C 
Ay, ay, ay si supieras 

Solo: 

|-10---------------------------------------------|-------------------------------| 
|-----------11?-11/10--10-10/8--8?8/6-6p5--------|-6--6----------------9/10-10---| 
|-------12--12--12-----10-10----9--9------7-5-7--|-7--7---7-7p5-----5--9/10-10---| 
|------------------------------------------------|--------------8-7--------------| 
|------------------------------------------------|-------------------------------| 
|------------------------------------------------|-------------------------------| 

|--------------12--13-12---10---------------------------------------------| 
|-9/10-10----13---------------13----11-10-------------------10--8-6-5--3--| 
|-9/10-10--14-----------------------------12-10-12/14-12----10--9-7-5--3--| 
|--------------------------------------------------------10---------------| 
|-------------------------------------------------------------------------| 
|-------------------------------------------------------------------------| 

Gm      C 
Yo la llevo  
Dm       A# 
A donde voy 
           F                 Am          C 
Como quisiera que no me doliera esta canción 
               A#9 
Ay, ay, ay si supieras  

|------------------|--------------------|------------------|--1-1-1-1-1-1-1--| 
|---------1--------|-----------1--------|---------1--------|--1-1-1-1-1-1-1--| 
|-------3---3---3--|---------3---3---3--|-------3---3---3--|--3-3-3-3-3-3-3--| 
|-----3-------3----|-------3-------3----|-----3-------3----|--3-3-3-3-3-3-3--| 
|------------------|--------------------|------------------|--1-1-1-1-1-1-1--| 
|-1-1--------------|-1-1----------------|-1-1--------------|-----------------| 


Dm             F               C            
Que me esta llevando la tristeza  e|-------------------------| 
                                  B|--4/5?5---4/5?5-----1-3--| 
                                  G|--4/5-5---4/5-5-0-2------| 
Dm             F               C 
Que me estoy bebiendo este dolor  e|---------------------------| 
                                  B|--4/5?5---4/5-?5-8--6--5---| 
                                  G|--4/5-5---4/5--5-9--7--5---| 

Gm             F             Am 
Que mi vida ya esta casi muerta 
                C 
Ay, ay, ay si supieras 

Final: 

|-----------------------------------------8---------8---------------8----------------------| 
|-------6---------6-6/8--8-8/10-8-------6---6?6/8-6---6-6/8-6-6/8-6---6-6/8v?8-10-10-10-8--| 
|-7-5h7----7?5h7------------------10-7---------------------------------------------------7-| 
|------------------------------------------------------------------------------------------| 
|------------------------------------------------------------------------------------------| 
|------------------------------------------------------------------------------------------| 

Con mucho cariño para Lorena 
Te Amo!
share this page

See Also: