E-Chords
Elefante

El Que Busca Encuentra(Tabs)

Elefante

roll up this ad to continue

Key: A
Autor: Reyli 


INTRO 

e|------14------12--------10------9---------------------| 
B|---15------14--------12---------10--------------------| 
G|------------------------------------------------------| 
D|-------------------------------------------2h4-2------| 
A|-------------------------------------------------4-2--| 
E|------------------------------------------------------| 
       A 
e|------------------------------------------------------| 
B|------------------------------------------------------| 
G|------------------------------------------------------| 
D|-----2--------2--------------2----------2-------------| 
A|--0------4---------4----0---------4-----------4-------| 
E|------------------------------------------------------| 
     G 
e|------------------------------------------------------| 
B|------------------------------------------------------| 
G|------------------------------------------------------| 
D|------------------------------------------------------| 
A|-----2-?0--2---5---2-------2---0---2---5---2----------| 
E|--3--------------------3------------------------------| 
       A 
e|------------------------------------------------------| 
B|------------------------------------------------------| 
G|------------------------------------------------------| 
D|-----2--------2--------------2----------2-------------| 
A|--0------4---------4----0---------4-----------4-------| 
E|------------------------------------------------------| 
     G 
e|------------------------------------------------------| 
B|------------------------------------------------------| 
G|------------------------------------------------------| 
D|------------------------------------------------------| 
A|-----2-?0--2---5---2-------2---0---2---5---2----------| 
E|--3--------------------3------------------------------| 

A 
Sálvese quien pueda Que anda suelto un 
e|------------------------------------------------------| 
B|------------------------------------------------------| 
G|------------------------------------------------------| 
D|-----2--------2--------------2----------2-------------| 
A|--0------4---------4----0---------4-----------4-------| 
E|------------------------------------------------------| 
    G 
Corazón 
e|------------------------------------------------------| 
B|------------------------------------------------------| 
G|------------------------------------------------------| 
D|------------------------------------------------------| 
A|-----2-?0--2---5---2-------2---0---2---5---2----------| 
E|--3--------------------3------------------------------| 
    A 
Dispuesto a lo que sea Sin domicilio ni 
e|------------------------------------------------------| 
B|------------------------------------------------------| 
G|------------------------------------------------------| 
D|-----2--------2--------------2----------2-------------| 
A|--0------4---------4----0---------4-----------4-------| 
E|------------------------------------------------------| 
       G 
Dirección. 
e|------------------------------------------------------| 
B|------------------------------------------------------| 
G|------------------------------------------------------| 
D|------------------------------------------------------| 
A|-----2-?0--2---5---2-------2---0---2---5---2----------| 
E|--3--------------------3------------------------------| 
A 
Abran las puertas 
e|------------------------------------------------------| 
B|------------------------------------------------------| 
G|------------------------------------------------------| 
D|-----2--------2--------------2----------2-------------| 
A|--0------4---------4----0---------4-----------4-------| 
E|------------------------------------------------------| 
     G 
Que anda sediento de amor, 
e|------------------------------------------------------| 
B|------------------------------------------------------| 
G|------------------------------------------------------| 
D|------------------------------------------------------| 
A|-----2-?0--2---5---2-------2---0---2---5---2----------| 
E|--3--------------------3------------------------------| 
  A 
Y es que si lo pruebas Puede ser una 
e|------------------------------------------------------| 
B|------------------------------------------------------| 
G|------------------------------------------------------| 
D|-----2--------2--------------2----------2-------------| 
A|--0------4---------4----0---------4-----------4-------| 
E|------------------------------------------------------| 
     G 
Adicción. 
e|------------------------------------------------------| 
B|------------------------------------------------------| 
G|------------------------------------------------------| 
D|------------------------------------------------------| 
A|-----2-?0--2---5---2-------2---0---2---5---2----------| 
E|--3--------------------3------------------------------| 


     Bm           A 
Una aguja en un pajar 
     F#m          G 
Una lagrima en el mar 
     Bm         A 
Una noche sin dormir 
             G 
Un grito de guerra. 

     Bm           A 
Un fantasma de verdad 
     F#m       G 
Un pecado original 
     Bm              A 
Un amor de esos que casi 
         G 
No te encuentras. 

SOLO: 

e|---------------------------------| 
B|---------------------------------| 
G|--------2--4---2h4--2h4p2-----2--| 
D|--2--4----------------------4----| 
A|---------------------------------| 
E|---------------------------------| 

e|------------------------------------------------| 
B|------5/7---5-----------------------------------| 
G|--------------6-4-----------------7-7-7-6-4--4--| 
D|--------------------7-4--7--7/9--9----------7---| 
A|------------------------------------------------| 
E|------------------------------------------------| 

e|-----------------------------------------2---------| 
B|------7---5-------------------------3--------------| 
G|--6/7-7---6----2---------2--4--2h4----4------------| 
D|--------------------2--4---------------------------| 
A|---------------------------------------------------| 
E|--------------------------------------------0h2-0--| 

 A 
Sálvese quien pueda Que anda suelto un 
e|------------------------------------------------------| 
B|------------------------------------------------------| 
G|------------------------------------------------------| 
D|-----2--------2--------------2----------2-------------| 
A|--0------4---------4----0---------4-----------4-------| 
E|------------------------------------------------------| 
     G 
Corazón, 
e|------------------------------------------------------| 
B|------------------------------------------------------| 
G|------------------------------------------------------| 
D|------------------------------------------------------| 
A|-----2-?0--2---5---2-------2---0---2---5---2----------| 
E|--3--------------------3------------------------------| 
  A 
Cuídense muñecas Nada más por precaución 
e|------------------------------------------------------| 
B|------------------------------------------------------| 
G|------------------------------------------------------| 
D|-----2--------2--------------2----------2-------------| 
A|--0------4---------4----0---------4-----------4-------| 
E|------------------------------------------------------| 
       G 
Precaución. 
e|------------------------------------------------------| 
B|------------------------------------------------------| 
G|------------------------------------------------------| 
D|------------------------------------------------------| 
A|-----2-?0--2---5---2-------2---0---2---5---2----------| 
E|--3--------------------3------------------------------| 
  A 
Guapas y Feas 
e|------------------------------------------------------| 
B|------------------------------------------------------| 
G|------------------------------------------------------| 
D|-----2--------2--------------2----------2-------------| 
A|--0------4---------4----0---------4-----------4-------| 
E|------------------------------------------------------| 
 G 
Todas merecen amor, 
e|------------------------------------------------------| 
B|------------------------------------------------------| 
G|------------------------------------------------------| 
D|------------------------------------------------------| 
A|-----2-?0--2---5---2-------2---0---2---5---2----------| 
E|--3--------------------3------------------------------| 
A 
El que busca encuentra Y yo te he encontrado 
e|------------------------------------------------------| 
B|------------------------------------------------------| 
G|------------------------------------------------------| 
D|-----2--------2--------------2----------2-------------| 
A|--0------4---------4----0---------4-----------4-------| 
E|------------------------------------------------------| 
 G 
Hoy. 
e|------------------------------------------------------| 
B|------------------------------------------------------| 
G|------------------------------------------------------| 
D|------------------------------------------------------| 
A|-----2-?0--2---5---2-------2---0---2---5---2----------| 
E|--3--------------------3------------------------------| 


     Bm           A 
Una aguja en un pajar 
     F#m          G 
Una lagrima en el mar 
     Bm         A 
Una noche sin dormir 
             G 
Un grito de guerra. 

     Bm           A 
Un fantasma de verdad 
     F#m       G 
Un pecado original 
     Bm              A 
Un amor de esos que casi 
         G 
No te encuentras. 

Bm           A 
Una aguja en un pajar 
     F#m          G 
Una lagrima en el mar 
     Bm         A 
Una noche sin dormir 
             G 
Un grito de guerra. 

     Bm           A 
Un fantasma de verdad 
     F#m       G 
Un pecado original 
     Bm              A 
Un amor de esos que casi 
         G 
No te encuentras 
    Bm              A 
Un amor de esos que casi 
e|------2---------------0---------| 
B|-----3-3-------------2-2--------| 
G|----4---4-----------2---2-------| 
D|--------------------------------| 
A|--2---------------0-------------| 
E|--------------------------------| 
         G 
No te encuentras. 
e|----------3--------------------| 
B|---------3-3-------------------| 
G|--------4---4------------------| 
D|-------------------------------| 
A|-------------------------------| 
E|-------3-----------------------| 

e|-------------------------------| 
B|-----2h3-2---------------------| 
G|-----2-----4--2--2h4-----------| 
D|-------------------------------| 
A|-------------------------------| 
E|-------------------------------|
share this page

See Also: