E-Chords
Elefante

Caminar(Tabs)

Elefante

roll up this ad to continue

Key: Am
*Intro: 

1. ---------------------------------------------|------8-11br-8-8/10-------------------| 
2. ----------9h10-------------------------------|-9h10---------------9/10-10-8---------| 
3. -5/7-5---------9-8-7---5-5-------5-5---5-5/7-|------------------------------9-7-5---| 
4. -5/7---7-------------7-----7-6h7-----7-------|------------------------------------7-| 
5. ---------------------------------------------|--------------------------------------| 
6. ---------------------------------------------|--------------------------------------| 

1. ------------------------| 
2. ------------------------| 
3. -/5-----------5-7br-5---| 
4. --------5-5h7---------7-| 
5. ----5h7-----------------| 
6. ------------------------| 


*Verso: 


  Am         E7 
Caminar por donde quiera, 
1. ----------------------------| 
2. ----------------------------| 
3. ----------------------5-5/7-| 
4. --------------------7-------| 
5. ----------------------------| 
6. ----------------------------| 
 G           D 
caminar por las banquetas, 
1. -------------------------------| 
2. ------------------------8-8/10-| 
3. ----------------------9--------| 
4. -------------------------------| 
5. -------------------------------| 
6. -------------------------------| 
 Am         E7 
caminar con la certeza, 
1. -------------------11br-10p8-8/10-| 
2. ----------------------------------| 
3. ----------------------------------| 
4. ----------------------------------| 
5. ----------------------------------| 
6. ----------------------------------| 
 G             D 
de este mundo de cabeza. 
1. ------------------------8-8-| 
2. -------------------8h10-----| 
3. ----------------------------| 
4. ----------------------------| 
5. ----------------------------| 
6. ----------------------------| 


   Am             E7 
Caminar con paso lento, 
1. -8------------------| 
2. ---10---------------| 
3. --------------------| 
4. --------------------| 
5. --------------------| 
6. --------------------| 
      G           D 
esquivando los momentos, 
1. ----------------------------| 
2. --------------------8/10-10-| 
3. --------------------9/10-10-| 
4. ----------------------------| 
5. ----------------------------| 
6. ----------------------------| 
   Am              E7 
caminar por los caminos, 
1. ----------------------------| 
2. ----------------------------| 
3. -5----------------------5-5-| 
4. ---7----------------5h7-----| 
5. ----------------------------| 
6. ----------------------------| 
           G         D   
de este extraño laberinto. 
1. --------------------------| 
2. -----------------------8\-| 
3. --------------------------| 
4. --------------------------| 
5. --------------------------| 
6. --------------------------| 


*Coro: 


       F                E7 
Y tal vez no encuentre nada, 
                  Am 
y sólo quede tu mirada, 
       F              E7 
y tal vez despues de todo, 
                        Am 
no sea tan malo de ese modo. 


*Solo 1: 

1. ------------------------------------|-----12-15-12----------------|-15---15------------------| 
2. -9/10---10p9---/8-8p7p5---5---------|---13---------13-15-15/17\15-|-15br-15br-15p13-15----13-| 
3. ------9------9----------7---5-7---5-|-14--------------------------|--------------------14----| 
4. --------------------------------5---|-----------------------------|--------------------------| 
5. ------------------------------------|--P.M.-----------------------|--------------------------| 
6. ------------------------------------|-----------------------------|--------------------------| 


*Verso: 


 Am         E7 
Caminar con mi bandera, 
1. --------------------------| 
2. ----------------------8-8-| 
3. ------------------7h9-----| 
4. --------------------------| 
5. --------------------------| 
6. --------------------------| 
 G         D 
caminar a mi manera, 
1. ----------------/8----| 
2. -------------------10-| 
3. ----------------------| 
4. ----------------------| 
5. ----------------------| 
6. ----------------------| 
 Am         E7 
caminar, seguir andando, 
1. -------------------------8----| 
2. --------------------8h10-8-10-| 
3. ------------------------------| 
4. ------------------------------| 
5. ------------------------------| 
6. ------------------------------| 
 G            D  
que no sabes hasta cuando. 
1. -----------------------11b(12)(12)r-10p8---------------| 
2. -----------------------------------------10p8-----8/10-| 
3. ----------------------------------------------9p7------| 
4. -------------------------------------------------------| 
5. -------------------------------------------------------| 
6. -------------------------------------------------------| 


    Am             E7 
Caminar sin rumbo fijo, 
1. -------------------7b(8)(8)-| 
2. ----------------------------| 
3. ----------------------------| 
4. ----------------------------| 
5. ----------------------------| 
6. ----------------------------| 
       G            D  
resolviendo el acertijo, 
1. ------------------------------------------| 
2. -------------------8/10-10p8-------8-8/10-| 
3. -----------------------------9p7-9--------| 
4. ------------------------------------------| 
5. ------------------------------------------| 
6. ------------------------------------------| 
   Am                 E7  
caminar, no queda de otra, 
1. --------------------------| 
2. ----------------------10\-| 
3. --------------------------| 
4. --------------------------| 
5. --------------------------| 
6. --------------------------| 
        G          D 
así es esta vida loca. 
1. -----------------------------8-8-8-| 
2. ----------------------8-8/10-------| 
3. ------------------7h9--------------| 
4. -----------------------------------| 
5. -----------------------------------| 
6. -----------------------------------| 


*Coro: 


       F                E7 
Y tal vez no encuentre nada, 
                  Am 
y sólo quede tu mirada, 
       F              E7 
y tal vez despues de todo, 
                        Am 
no sea tan malo de ese modo, 
       F                E7 
y tal vez no encuentre nada. 

1. -1-1-1-1-1-1-1-1-0-| 
2. -1-1-1-1-1-1-1-1-0?|-Bajo: 
3. -2-2-2-2-2-2-2-2-1-|-------------| 
4. -3-3-3-3-3-3-3-3-0-|----2-0------| 
5. -3-3-3-3-3-3-3-3-2-|---------3---| 
6. -1-1-1-1-1-1-1-1-0-|-------------| 


*Solo 2: 

1. -----8?11/12-10p8-10-8---------8---------------------------| 
2. -10--------------------10p8-10---10-10p8---8---8-8/10--5\2-| 
3. -10--------------------------------------9---9---------5\2-| 
4. -----------------------------------------------------------| 
5. -----------------------------------------------------------| 
6. -----------------------------------------------------------| 

1. --------------------------------121212\10-101010\8-888----------------| 
2. -/10---------------------------------------------------10-8-----------| 
3. -----9-8-7---5-----5-5/7---5--------------------------------9-7-7p5---| 
4. -----------7-5-7-7-5-----7-5-7--------------------------------------7-| 
5. ----------------------------------------------------------------------| 
6. ----------------------------------------------------------------------| 


(Fill) 
Am            Dm 
Caminar por caminar                    <------------------------Palm Mute---------------------->   
E7           Am                     1. -------------------|------------------|------------------| 
sin saber a donde vas a dar,        2. -8h10-10-8-8h10-10-|-8-8h10-10-8-8h10-|-10h12-12/13-8h10-| 
            Dm                      3. -------------------|------------------|------------------| 
caminar con la certeza              4. -------------------|------------------|------------------| 
E7             Am                   5. -------------------|------------------|------------------| 
que este mundo se endereza,         6. -------------------|------------------|------------------| 
             Dm 
caminar por caminar, 
E7         Am    
pa? reir y pa? llorar, 
                         Dm 
pa? llorar, caminar, no queda de otra, 
E7           Am 
así es esta vida loca. 


*Outro: 

                    ?Así es esta vida loca, oh oh oh!!!!?         
1. -----------------------------------------|----------------------------------| 
2. -----------------------------------------|----------------------------------| 
3. ---------5---5---------------------------|---------5---5---------------/5---| 
4. ---5-6-7---7-----------------5---5-------|---5-6-7---7--------------------7-| 
5. -7-------------7-6-5---5-6-7---7---5-----|-7-------------7-6-5---5-6-7------| 
6. ---------------------8---------------8-5-|---------------------8------------| 


[email protected] 
291251 

visiten: www.elefans.com.mx
share this page

See Also: