E-Chords
El Reloj

Tema De Todas Las Épocas(Tabs)

El Reloj

E------------------------------------------ 
B-----8-7-8-10----12-12--10--10--10--8-8-8- 
G------------------------------------------ 
D---9-------------------------------------- 
A-7------------10----10---9---9---9--7-7-7- 
E------------------------------------------ 

E----------------2h3s5----------------- 
B-----8-7-8-10---3-------5-6-5---5-4-4- 
G----------------2--------------------- 
D---9----------0---------5-------4----- 
A-7--------------------3-------2------- 
E-------------------------------------- 

E------------------------- 
B-----3-2-3-5-----8-7-5--- 
G------------------------- 
D---4-----------7-------9- 
A-2-----------5----------- 
E------------------------- 

E-------------------------------------------------- 
B-----8-7-8-10-------13-12-10----------13-12-13-15- 
G-------------------------------------------------- 
D---9-------------12----------14----14------------- 
A-7------------10----------------12---------------- 
E-------------------------------------------------- 

E------------------------- 
B-17-15-13-10-8-4-------5- 
G-----------------4---4--- 
D------------------------- 
A-15-14-12-9--7-2---2----- 
E------------------------- 

E------------------------------------- 
B------------------------------------- 
G-4-5-7-4-5p4---4--------------------- 
D-------------7---7-5-4---5-4--------- 
A-----------------------7-----7-5-3-2- 
E------------------------------------- 

E---------------------------7-7-7- 
B-4h5-4h5---5-6-5---7-8-7---8-8-8- 
G---------------------------9-9-9- 
D-4---4-----5-5-5---7-7-7---9-9-9- 
A---------3-------5-------7------- 
E--------------------------------- 

E----------------2h3s5----------------- 
B-----8-7-8-10---3-------5-6-5---5-4-4- 
G----------------2--------------------- 
D---9----------0---------5-------4----- 
A-7--------------------3-------2------- 
E-------------------------------------- 

E------------------------- 
B-----3-2-3-5-----8-7-5--- 
G------------------------- 
D---4-----------7-------9- 
A-2-----------5----------- 
E------------------------- 

E-------------------------------------------------- 
B-----8-7-8-10-------13-12-10----------13-12-13-15- 
G-------------------------------------------------- 
D---9-------------12----------14----14------------- 
A-7------------10----------------12---------------- 
E-------------------------------------------------- 

E------------------------- 
B-17-15-13-10-8-4-------5- 
G-----------------4---4--- 
D------------------------- 
A-15-14-12-9--7-2---2----- 
E------------------------- 


E------------------------------------- 
B------------------------------------- 
G-4-5-7-4-5p4---4--------------------- 
D-------------7---7-5-4---5-4--------- 
A-----------------------7-----7-5-3-2- 
E------------------------------------- 

E---------------------------7-7-7- 
B-4h5-4h5---5-6-5---7-8-7---8-8-8- 
G---------------------------9-9-9- 
D-4---4-----5-5-5---7-7-7---9-9-9- 
A---------3-------5-------7------- 
E--------------------------------- 

E----------------2h3s5----------------- 
B-----8-7-8-10---3-------5-6-5---5-4-4- 
G----------------2--------------------- 
D---9----------0---------5-------4----- 
A-7--------------------3-------2------- 
E-------------------------------------- 


E------------------------- 
B-----3-2-3-5-----8-7-5--- 
G------------------------- 
D---4-----------7-------9- 
A-2-----------5----------- 
E------------------------- 


E-------------------------------------------------- 
B-----8-7-8-10-------13-12-10----------13-12-13-15- 
G-------------------------------------------------- 
D---9-------------12----------14----14------------- 
A-7------------10----------------12---------------- 
E-------------------------------------------------- 

E------------------------- 
B-17-15-13-10-8-4-------5- 
G-----------------4---4--- 
D------------------------- 
A-15-14-12-9--7-2---2----- 
E------------------------- 

 

roll up this ad to continue

share this page

See Also: