E-Chords
El Kanka

Querría(Tabs)

El Kanka

roll up this ad to continue

Intro 

e|-0--2/3--5--5-|-2--2-|-0--0-|-0-|-0--2/3--5--5-|-2--2-|-0--0-|-1-|-0--2/3--5--5-|-7--7-|-3--3-|-5--5-| 
B|-0--4/5--5--5-|-4--4-|-0--0-|-0-|-0--4/5--5--5-|-4--4-|-0--0-|-3-|-0--4/5--5--5-|-7--7-|-5--5-|-4--4-| 
G|--------------|-2--2-|-0--0-|-0-|--------------|-2--2-|-0--0-|-1-|--------------|-7--7-|-4--4-|-5--5-| 
D|--------------|------|------|---|--------------|------|------|-3-|--------------|------|------|------| 
A|---------0----|2-----|------|-2-|---------0----|2-----|------|-2-|---------0----|5-----|------|3-----| 
E|--------------|------|0-----|---|--------------|------|0-----|---|--------------|------|3-----|------| 

e|-3--2(3)--|-----------------0-|-----0---0-------3--2----| 
B|-2--2-----|-5--4--1--0------0-|-0---0---0----0--------4-| 
G|-3--3-----|-------------2---0-|-0---0---0---------------| 
D|----------|-5--4--2--1--------|-----------------5--4--1-| 
A|----------|-------------3-----|--2-----------2----------| 
E|2---------|----------------0--|------2---0--------------| 



************************************ 

| /    Slide up 
| (n)  Ghost note 

************************************ 
share this page

See Also: