E-Chords
Ektomorf

I'm In Hate(Tabs)

Ektomorf

roll up this ad to continue

Key: F#
 

I. Guitars 1 and 2 (w/ dist) - 8 empty bars 

   Guitar 3 (w/ clean and delay) 

 B|-----------------------|--------|-----------------------|--------| 
F#|-----------------------|--------|-----------------------|--------| 
 D|-----14------13--------|--------|-----14------13--------|--------| 
 A|-12------12------------|--------|-12------12------------|--------| 
 E|-----------------------|--------|-----------------------|--------| 
 A|-----------------------|--------|-----------------------|--------| 

 B|-----------------------|--------|-----------------------|--------| 
F#|-----------------------|--------|-----------------------|--------| 
 D|-----------------------|--------|-----------------------|--------| 
 A|-----15------14--------|--------|-----15------14--------|--------| 
 E|-13------13------------|--------|-13------13------------|--------| 
 A|-----------------------|--------|-----------------------|--------| 

II. Guitars 1 and 2 (w/ dist) 

 B|---------------------------------|---------------------------------| 
F#|---------------------------------|---------------------------------| 
 D|---------------------------------|---------------------------------| 
 A|-0---0---0---0---0---0---0---0---|-0---0---0---0---0---0---0---0---| 
 E|-0---0---0---0---0---0---0---0---|-0---0---0---0---0---0---0---0---|\ 
 A|-0---0---0---0---0---0---0---0---|-0---0---0---0---0---0---0---0---| \ 
                                                                         x2 
 B|---------------------------------|---------------------------------| / 
F#|---------------------------------|---------------------------------|/ 
 D|---------------------------------|---------------------------------| 
 A|-8---8---8---8---8---8---8---8---|-8---8---8---8---8---8---8---8---| 
 E|-8---8---8---8---8---8---8---8---|-8---8---8---8---8---8---8---8---| 
 A|-8---8---8---8---8---8---8---8---|-8---8---8---8---8---8---8---8---| 

   Guitar 3 (w/ clean and delay) 

 B|---------------------------------|---------------------------------| 
F#|---------------------------------|---------------------------------| 
 D|-----14------14------14------14--|-----14------13------13------13--| 
 A|-12------12------12------12------|-12------12------12------12------| 
 E|---------------------------------|---------------------------------|\ 
 A|---------------------------------|---------------------------------| \ 
                                                                         x2 
 B|---------------------------------|---------------------------------| / 
F#|---------------------------------|---------------------------------|/ 
 D|---------------------------------|---------------------------------| 
 A|-----15------15------15------15--|-----15------14------14------14--| 
 E|-13------13------13------13------|-13------13------13------13------| 
 A|---------------------------------|---------------------------------| 

III. Guitars 1 and 2 (w/ dist) 

 B|---------------------------------|-----------------------| 
F#|---------------------------------|-----------------------| 
 D|---------------------------------|-----------------------| x2 
 A|-0---0---0---0---0-------0---0---|-0---0---0-------------| 
 E|-0---0---0---0---0-------0---0---|-0---0---0-------------| 
 A|-0---0---0---0---0-------0---0---|-0---0---0-------------| 

    Guitar 3 (w/ clean and delay) 

 B|--------|--------| 
F#|--------|--------| 
 D|--------|--------| 
 A|-12-----|--------| 
 E|--------|--------| 
 A|--------|--------| 

----------------------------------------------------------------------------------------- 
                                    VERSE (00:41-01:13) 
----------------------------------------------------------------------------------------- 

Guitars 1 and 2 (w/ dist) 

 B|---------------------------------|---------------------------------| 
F#|---------------------------------|---------------------------------| 
 D|---------------------------------|---------------------------------| 
 A|-0---0---0---0---0-------0---0---|-0---0---0-------2---2---2---2---| 
 E|-0---0---0---0---0-------0---0---|-0---0---0-------2---2---2---2---|\ 
 A|-0---0---0---0---0-------0---0---|-0---0---0-------2---2---2---2---| \ 
                                                                         x4 
 B|---------------------------------|---------------------------------| / 
F#|---------------------------------|---------------------------------|/ 
 D|---------------------------------|---------------------------------| 
 A|-3---3---3---3---3-------3---3---|-3---3---3-------6---6---6---6---| 
 E|-3---3---3---3---3-------3---3---|-3---3---3-------6---6---6---6---| 
 A|-3---3---3---3---3-------3---3---|-3---3---3-------6---6---6---6---| 

----------------------------------------------------------------------------------------- 
                                    Chorus (01:13-01:33) 
----------------------------------------------------------------------------------------- 

I. Guitars 1 and 2 (w/ dist) 

 B|---------------------------------|---------------------------------| 
F#|---------------------------------|---------------------------------| 
 D|---------------------------------|---------------------------------| 
 A|-0---0---0---0---0---0---0---0---|-0---0---0---0---0---0---0---0---| 
 E|-0---0---0---0---0---0---0---0---|-0---0---0---0---0---0---0---0---|\ 
 A|-0---0---0---0---0---0---0---0---|-0---0---0---0---0---0---0---0---| \ 
                                                                         x2 
 B|---------------------------------|---------------------------------| / 
F#|---------------------------------|---------------------------------|/ 
 D|---------------------------------|---------------------------------| 
 A|-8---8---8---8---8---8---8---8---|-8---8---8---8---8---8---8---8---| 
 E|-8---8---8---8---8---8---8---8---|-8---8---8---8---8---8---8---8---| 
 A|-8---8---8---8---8---8---8---8---|-8---8---8---8---8---8---8---8---| 

   Guitar 3 (w/ clean and delay) 

 B|---------------------------------|---------------------------------| 
F#|---------------------------------|---------------------------------| 
 D|-----14------14------14------14--|-----14------13------13------13--| 
 A|-12------12------12------12------|-12------12------12------12------| 
 E|---------------------------------|---------------------------------|\ 
 A|---------------------------------|---------------------------------| \ 
                                                                         x2 
 B|---------------------------------|---------------------------------| / 
F#|---------------------------------|---------------------------------|/ 
 D|---------------------------------|---------------------------------| 
 A|-----15------15------15------15--|-----15------14------14------14--| 
 E|-13------13------13------13------|-13------13------13------13------| 
 A|---------------------------------|---------------------------------| 

II. Guitars 1 and 2 (w/ dist) 

 B|---------------------------------|-----------------------| 
F#|---------------------------------|-----------------------| 
 D|---------------------------------|-----------------------|  
 A|-0---0---0---0---0-------0---0---|-0---0---0-------------| 
 E|-0---0---0---0---0-------0---0---|-0---0---0-------------| 
 A|-0---0---0---0---0-------0---0---|-0---0---0-------------| 

    Guitar 3 (w/ clean and delay) 

 B|--------|--------| 
F#|--------|--------| 
 D|--------|--------| 
 A|-12-----|--------| 
 E|--------|--------| 
 A|--------|--------| 

----------------------------------------------------------------------------------------- 
                                    verse 2 (01:33-02:05) 
----------------------------------------------------------------------------------------- 
                                      same as VERSE 
----------------------------------------------------------------------------------------- 
                                    Chorus 2 (02:05-02:21) 
----------------------------------------------------------------------------------------- 

 Guitars 1 and 2 (w/ dist) 

 B|---------------------------------|---------------------------------| 
F#|---------------------------------|---------------------------------| 
 D|---------------------------------|---------------------------------| 
 A|-0---0---0---0---0---0---0---0---|-0---0---0---0---0---0---0---0---| 
 E|-0---0---0---0---0---0---0---0---|-0---0---0---0---0---0---0---0---|\ 
 A|-0---0---0---0---0---0---0---0---|-0---0---0---0---0---0---0---0---| \ 
                                                                         x2 
 B|---------------------------------|---------------------------------| / 
F#|---------------------------------|---------------------------------|/ 
 D|---------------------------------|---------------------------------| 
 A|-8---8---8---8---8---8---8---8---|-8---8---8---8---8---8---8---8---| 
 E|-8---8---8---8---8---8---8---8---|-8---8---8---8---8---8---8---8---| 
 A|-8---8---8---8---8---8---8---8---|-8---8---8---8---8---8---8---8---| 

 Guitar 3 (w/ clean and delay) 

 B|---------------------------------|---------------------------------| 
F#|---------------------------------|---------------------------------| 
 D|-----14------14------14------14--|-----14------13------13------13--| 
 A|-12------12------12------12------|-12------12------12------12------| 
 E|---------------------------------|---------------------------------|\ 
 A|---------------------------------|---------------------------------| \ 
                                                                         x2 
 B|---------------------------------|---------------------------------| / 
F#|---------------------------------|---------------------------------|/ 
 D|---------------------------------|---------------------------------| 
 A|-----15------15------15------15--|-----15------14------14------14--| 
 E|-13------13------13------13------|-13------13------13------13------| 
 A|---------------------------------|---------------------------------| 
                                       
----------------------------------------------------------------------------------------- 
                                     BRIDGE (02:21-2:45) 
----------------------------------------------------------------------------------------- 

 Guitars 1 and 2 (w/ dist) - 12 empty bars 

 Guitar 3 (w/ clean and delay) 

 B|---------------------------------|---------------------------------| 
F#|---------------------------------|---------------------------------| 
 D|-----14------14------14------14--|-----14------13------13------13--| 
 A|-12------12------12------12------|-12------12------12------12------| 
 E|---------------------------------|---------------------------------|\ 
 A|---------------------------------|---------------------------------| \ 
                                                                         x2 
 B|---------------------------------|---------------------------------| / 
F#|---------------------------------|---------------------------------|/ 
 D|---------------------------------|---------------------------------| 
 A|-----15------15------15------15--|-----15------14------14------14--| 
 E|-13------13------13------13------|-13------13------13------13------| 
 A|---------------------------------|---------------------------------| 

 B|--------|--------| 
F#|--------|--------| 
 D|--------|--------| 
 A|-12-----|--------| 
 E|--------|--------| 
 A|--------|--------| 

----------------------------------------------------------------------------------------- 
                                     OUTRO (02:45-03:25) 
----------------------------------------------------------------------------------------- 

Guitars 1 and 2 (w/ dist) 

 B|---------------------------------|---------------------------------| 
F#|---------------------------------|---------------------------------| 
 D|---------------------------------|---------------------------------| 
 A|---------------------------------|---------------------------------| 
 E|-0---0---0---0---0---0---0---0---|-0---0---0---0---0---0---0---0---| 
 A|-0---0---0---0---0---0---0---0---|-0---0---0---0---0---0---0---0---| 
    *   *   *   *   *   *   *   *     *   *   *   *   *   *   *   * 
                                                        ------------------| 
 B|---------------------------|---------------------------|               | 
F#|---------------------------|---------------------------|               | 
 D|---------------------------|---------------------------|               | 
 A|---------------------------|---------------------------|               | 
 E|-0---0---0---0---0---------|-----0---0---0---0---------|               | 
 A|-0---0---0---0---0---------|-----0---0---0---0---------|               | 
    *   *   *   *   *               *   *   *   *                         | x4 
 B|---------------------------------|---------------------------------|   | 
F#|---------------------------------|---------------------------------|   | 
 D|---------------------------------|---------------------------------|   | 
 A|---------------------------------|---------------------------------|   | 
 E|-----0---0---0---0---0---0---0---|-0---0---0---0---3---3---1---1---|   | 
 A|-----0---0---0---0---0---0---0---|-0---0---0---0---3---3---1---1---|   | 
        *   *   *   *   *   *   *     *   *   *   *   *   *   *   * ------| 

************************************ 

| * palm mute 

************************************ 
share this page

See Also: