E-Chords
Ektomorf

I Know Them(Tabs)

Ektomorf

roll up this ad to continue

Key: B
[email protected] 

I Know Them 


Tuning: Drop B 

Intro (7x) 
e|-------------------------------------------------------------------| 
B|---------7--------7--------7-------7----10--8--7-8-7---------------| 
G|----8--7-----8--7-----8--7----8--7---------------------------------| 
D|-------------------------------------------------------------------| 
A|-------------------------------------------------------------------| 
E|-------------------------------------------------------------------| 

e|----------------------------------------| 
B|---------7--------7-------7-------------| 
G|----8--7-----8--7----8--7---------------| 
D|----------------------------------------| 
A|----------------------------------------| 
E|----------------------------------------| 

e|--------------------| 
B|--------------------| 
G|--------------------| 
D|-----3-----4/-------| 
A|-----3-----4/-------| 
E|--0--3--0--4/-------| 

e|--------------------------------------------------------------------------| 
B|--------------------------------------------------------------------------| 
G|--------------------------------------------------------------------------| 
D|--------------------------------------------------------------------------| 
A|--------------------------------------------------------------------------| 
E|--1--0--0--1--0--0--1--0--0--1--0--0--0--0--0--0--1--0--0--1--0--0--1--0--| 

e|--------------------| 
B|--------------------| 
G|--------------------| 
D|-----3-----4/-------| 
A|-----3-----4/-------| 
E|--0--3--0--4/-------| 

e|--------------------------------------------------| 
B|--------------------------------------------------| 
G|--------------------------------------------------| 
D|--------------------------------------------------| 
A|--------------------------------------------------| 
E|--1--0--0--0--0--0--0--0--0--0--0--0--7--5--4--5--| (x4) 

e|--------------------| 
B|--------------------| 
G|--------------------| 
D|-----3-----4/-------| 
A|-----3-----4/-------| 
E|--0--3--0--4/-------| 

e|--------------------------------------------------------------------------| 
B|--------------------------------------------------------------------------| 
G|--------------------------------------------------------------------------| 
D|--------------------------------------------------------------------------| 
A|--------------------------------------------------------------------------| 
E|--1--0--0--1--0--0--1--0--0--1--0--0--0--0--0--0--1--0--0--1--0--0--1--0--| 

e|--------------------| 
B|--------------------| 
G|--------------------| 
D|-----3-----4/-------| 
A|-----3-----4/-------| 
E|--0--3--0--4/-------| 

e|--------------------------------------------------| 
B|--------------------------------------------------| 
G|--------------------------------------------------| 
D|--------------------------------------------------| 
A|--------------------------------------------------| 
E|--1--0--0--0--0--0--0--0--0--0--0--0--7--5--4--5--| (x3) 

e|-----------------| 
B|-----------------| 
G|-----------------| 
D|--0-0----0-0-----| 
A|--0-0----0-0-----| 
E|--0-0----0-0-----| (x4) 

e|---------| 
B|---------| 
G|---------| 
D|---------| 
A|---------| 
E|--4-0-0--| (x8) 

e|-----------|         
B|-----------| 
G|-----------| 
D|--4--0--0--| 
A|--4--0--0--| 
E|--4--0--0--| (x16)  

e|-----------|         
B|-----------| 
G|-----------| 
D|--0--------| 
A|--0--------| 
E|--0--------| 

e|-----------|         
B|-----------| 
G|-----------| 
D|--4--0--0--| 
A|--4--0--0--| 
E|--4--0--0--| (x8)  

e|-----------|         
B|-----------| 
G|-----------| 
D|--0--------| 
A|--0--------| 
E|--0--------| 

e|-----------|         
B|-----------| 
G|-----------| 
D|--4--0--0--| 
A|--4--0--0--| 
E|--4--0--0--| (x8)  

Solo: 

e|--8--6--5-5-5-5-5----6-5--------------------| 
B|-------------------------8---8-8-8-8-8------| 
G|--------------------------------------------| 
D|--------------------------------------------| 
A|--------------------------------------------| 
E|--------------------------------------------| 

e|--6--5--------------------------------------| 
B|----------8--7----7--7-7-7-7----------------| 
G|--------------------------------------------| 
D|--------------------------------------------| 
A|--------------------------------------------| 
E|--------------------------------------------| 

e|--5-4------------------|--------------------------| 
B|------7----------------|--10---13-11-10-11-10-11--| 
G|---------8--7----7--7--|--------------------------| 
D|-----------------------|--------------------------| 
A|-----------------------|--------------------------| 
E|-----------------------|--------------------------| 

e|-----------------------|--------------------------| 
B|--13-11-10-11-10-10----|--13-11-10-11-10-13~------| 
G|-----------------------|--------------------------| 
D|-----------------------|--------------------------| 
A|-----------------------|--------------------------| 
E|-----------------------|--------------------------| 

e|--------------------------------------------------------------------------| 
B|--------------------------------------------------------------------------| 
G|--------------------------------------------------------------------------| 
D|--------------------------------------------------------------------------| 
A|--------------------------------------------------------------------------| 
E|--1--0--0--1--0--0--1--0--0--1--0--0--0--0--0--0--1--0--0--1--0--0--1--0--| 

e|--------------------| 
B|--------------------| 
G|--------------------| 
D|-----3-----4/-------| 
A|-----3-----4/-------| 
E|--0--3--0--4/-------| 

e|--------------------------------------------------| 
B|--------------------------------------------------| 
G|--------------------------------------------------| 
D|--------------------------------------------------| 
A|--------------------------------------------------| 
E|--1--0--0--0--0--0--0--0--0--0--0--0--7--5--4--5--| (x3) 

e|-----------------| 
B|-----------------| 
G|-----------------| 
D|--0-0------------| 
A|--0-0------------| 
E|--0-0------------| (x4) 

e|------------------------|-------------------------------| 
B|------------------------|-------------------------------| 
G|------------------------|-------------------------------| 
D|------------------------|-------------------------------| 
A|--1-0-------------------|--4-0--------------------------| 
E|--1-0----0--0--0--0--0--|--4-0----0--0--0--0--0--0------| 

e|------------------------|-------------------------------| 
B|------------------------|-------------------------------| 
G|------------------------|-------------------------------| 
D|------------------------|-------------------------------| 
A|--1-0-------------------|--3-3-3-3--4-4-4-4-------------| 
E|--1-0----0--0--0--0--0--|--3-3-3-3--4-4-4-4-------------| 

e|-----------------| 
B|-----------------| 
G|-----------------| 
D|--0--------------| 
A|--0--------------| 
E|--0--------------| 

[email protected] 
share this page

See Also: