E-Chords
Eisbrecher

Verrückt(Tabs)

Eisbrecher

intro 
Eb-------------------------------------------------------------------------------| 
Bb-------------------------------------------------------------------------------| 
Gb-------------------------------------------------------------------------------| 
Db--0-0-8-8-11-11-8-8-0-0---8-8-9-9-8-8-0-0---8-8-11-11-8-8-1-1-8-8-9-9-1-1-0-0--| 
Ab--0-0-8-8-11-11-8-8-0-0---8-8-9-9-8-8-0-0---8-8-11-11-8-8-1-1-8-8-9-9-1-1-0-0--| 
Db--0-0-8-8-11-11-8-8-0-0---8-8-9-9-8-8-0-0---8-8-11-11-8-8-1-1-8-8-9-9-1-1-0-0--| x2 

Pauze 

Eb-------------------------------------------------------------------------------| 
Bb-------------------------------------------------------------------------------| 
Gb-------------------------------------------------------------------------------| 
Db--0-0-8-8-11-11-8-8-0-0---8-8-9-9-8-8-0-0---8-8-11-11-8-8-1-1-8-8-9-9-1-1-0-0--| 
Ab--0-0-8-8-11-11-8-8-0-0---8-8-9-9-8-8-0-0---8-8-11-11-8-8-1-1-8-8-9-9-1-1-0-0--| 
Db--0-0-8-8-11-11-8-8-0-0---8-8-9-9-8-8-0-0---8-8-11-11-8-8-1-1-8-8-9-9-1-1-0-0--| 

Verse 
Eb-------------------------------------------------------------------------------| 
Bb-------------------------------------------------------------------------------| 
Gb-------------------------------------------------------------------------------| 
Db--0-0-8-8-11-11-8-8-0-0---8-8-9-9-8-8-0-0---8-8-11-11-8-8-6-6-8-8-9-9-8-8-0-0--| 
Ab-------------------------------------------------------------------------------| 
Db-------------------------------------------------------------------------------| 

Eb------------------------------------------------------------------| 
Bb------------------------------------------------------------------| 
Gb------------------------------------------------------------------| 
Db--0-0-8-8-11-11-8-8-0-0---8-8-9-9-8-8-0-0--0-0-8-8-11-11-8-8-0-0--| 
Ab------------------------------------------------------------------| 
Db------------------------------------------------------------------| 

Chorus 
Eb-------------------------------------------------------------------| 
Bb-------------------------------------------------------------------| 
Gb------------------5-5-5-5-5-5-5-5-3-3-3-3-3-3-3-3------------------| 
Db--0-0-0-0-3-3-3-3-5-5-5-5-5-5-5-5-3-3-3-3-3-3-3-3-5-5-5-5-5-5-1-1--| 
Ab--0-0-0-0-3-3-3-3-3-3-3-3-3-3-3-3-1-1-1-1-1-1-1-1-5-5-5-5-5-5-1-1--| 
Db--0-0-0-0-3-3-3-3---------------------------------5-5-5-5-5-5-1-1--| 

Eb-------------------------------------------------------------------| 
Bb-------------------------------------------------------------------| 
Gb------------------5-5-5-5-5-5-5-5-3-3-3-3-3-3-3-3------------------| 
Db--0-0-0-0-3-3-3-3-5-5-5-5-5-5-5-5-3-3-3-3-3-3-3-3-1-1-1-1-1-1-1-1--| 
Ab--0-0-0-0-3-3-3-3-3-3-3-3-3-3-3-3-1-1-1-1-1-1-1-1-1-1-1-1-1-1-1-1--| 
Db--0-0-0-0-3-3-3-3---------------------------------1-1-1-1-1-1-1-1--| 

Pauze 

Verse 
Eb-------------------------------------------------------------------------------| 
Bb-------------------------------------------------------------------------------| 
Gb-------------------------------------------------------------------------------| 
Db--0-0-8-8-11-11-8-8-0-0---8-8-9-9-8-8-0-0---8-8-11-11-8-8-6-6-8-8-9-9-8-8-0-0--| 
Ab-------------------------------------------------------------------------------| 
Db-------------------------------------------------------------------------------| 

Eb------------------------------------------------------------------| 
Bb------------------------------------------------------------------| 
Gb------------------------------------------------------------------| 
Db--0-0-8-8-11-11-8-8-0-0---8-8-9-9-8-8-0-0--0-0-8-8-11-11-8-8-0-0--| 
Ab------------------------------------------------------------------| 
Db------------------------------------------------------------------| 

Chorus 2 
Eb-------------------------------------------------------------------| 
Bb-------------------------------------------------------------------| 
Gb------------------5-5-5-5-5-5-5-5-3-3-3-3-3-3-3-3------------------| 
Db--0-0-0-0-3-3-3-3-5-5-5-5-5-5-5-5-3-3-3-3-3-3-3-3-5-5-5-5-5-5-1-1--| 
Ab--0-0-0-0-3-3-3-3-3-3-3-3-3-3-3-3-1-1-1-1-1-1-1-1-5-5-5-5-5-5-1-1--| 
Db--0-0-0-0-3-3-3-3---------------------------------5-5-5-5-5-5-1-1--| 

Eb-------------------------------------------------------------------| 
Bb-------------------------------------------------------------------| 
Gb------------------5-5-5-5-5-5-5-5-3-3-3-3-3-3-3-3------------------| 
Db--0-0-0-0-3-3-3-3-5-5-5-5-5-5-5-5-3-3-3-3-3-3-3-3-1-1-1-1-1-1-1-1--| 
Ab--0-0-0-0-3-3-3-3-3-3-3-3-3-3-3-3-1-1-1-1-1-1-1-1-1-1-1-1-1-1-1-1--| 
Db--0-0-0-0-3-3-3-3---------------------------------1-1-1-1-1-1-1-1--| 

Eb-------------------------------------------------------------------| 
Bb-------------------------------------------------------------------| 
Gb------------------5-5-5-5-5-5-5-5-3-3-3-3-3-3-3-3------------------| 
Db--0-0-0-0-3-3-3-3-5-5-5-5-5-5-5-5-3-3-3-3-3-3-3-3-5-5-5-5-5-5-1-1--| 
Ab--0-0-0-0-3-3-3-3-3-3-3-3-3-3-3-3-1-1-1-1-1-1-1-1-5-5-5-5-5-5-1-1--| 
Db--0-0-0-0-3-3-3-3---------------------------------5-5-5-5-5-5-1-1--| 

Eb-------------------------------------------------------------------------------------| 
Bb-------------------------------------------------------------------------------------| 
Gb------------------5-5-5-5-5-5-5-5-3-3-3-3-3-3-3-3------------------------------------| 
Db--0-0-0-0-3-3-3-3-5-5-5-5-5-5-5-5-3-3-3-3-3-3-3-3-1-1-1-1-1-1-1-1--0~~~~~~~~~~~~~~~~-| 
Ab--0-0-0-0-3-3-3-3-3-3-3-3-3-3-3-3-1-1-1-1-1-1-1-1-1-1-1-1-1-1-1-1--0~~~~~~Fade out~~-| 
Db--0-0-0-0-3-3-3-3---------------------------------1-1-1-1-1-1-1-1--0~~~~~~~~~~~~~~~~-| 

verse 
Eb-------------------------------------------------------------------------------| 
Bb-------------------------------------------------------------------------------| 
Gb-------------------------------------------------------------------------------| 
Db--0-0-8-8-11-11-8-8-0-0---8-8-9-9-8-8-0-0---8-8-11-11-8-8-6-6-8-8-9-9-8-8-0-0--| 
Ab-------------------------------------------------------------------------------| 
Db-------------------------------------------------------------------------------| 

Bridge 
Eb-----------------------------------------------------------| 
Bb-----------------------------------------------------------| 
Gb-----------------------------------------------------------| 
Db--0-0---0---------------------3-3---3----------------------| 
Ab--0-0-0-0-0-0-0-0-0-0-0-0-0-0-3-3-3-3-3-3-3-3-3-3-3-3-3-3--| 
Db--0-0-0-0-0-0-0-0-0-0-0-0-0-0-3-3-3-3-3-3-3-3-3-3-3-3-3-3--| 
PM      .   . . . . . . . . . .     .   . . . . . . . . . . 

Eb-------------------------------------------------------------| 
Bb-------------------------------------------------------------| 
Gb--3-3---3----------------------------------------------------| 
Db--3-3-3-3-3-3-3-3-3-3-3-3-3-3-5-5---5---------------------5--| 
Ab--1-1-1-1-1-1-1-1-1-1-1-1-1-1-5-5-5-5-5-5-5-5-5-5-5-5-5-5-5--| 
Db------------------------------5-5-5-5-5-5-5-5-5-5-5-5-5-5-5--| 
PM      .   . . . . . . . . . .     .   . . . . . . . . . . 

Chorus 3 
Eb-------------------------------------------------------------------| 
Bb-------------------------------------------------------------------| 
Gb------------------5-5-5-5-5-5-5-5-3-3-3-3-3-3-3-3------------------| 
Db--0-0-0-0-3-3-3-3-5-5-5-5-5-5-5-5-3-3-3-3-3-3-3-3-5-5-5-5-5-5-1-1--| 
Ab--0-0-0-0-3-3-3-3-3-3-3-3-3-3-3-3-1-1-1-1-1-1-1-1-5-5-5-5-5-5-1-1--| 
Db--0-0-0-0-3-3-3-3---------------------------------5-5-5-5-5-5-1-1--| 

Eb-------------------------------------------------------------------| 
Bb-------------------------------------------------------------------| 
Gb------------------5-5-5-5-5-5-5-5-3-3-3-3-3-3-3-3------------------| 
Db--0-0-0-0-3-3-3-3-5-5-5-5-5-5-5-5-3-3-3-3-3-3-3-3-1-1-1-1-1-1-1-1--| 
Ab--0-0-0-0-3-3-3-3-3-3-3-3-3-3-3-3-1-1-1-1-1-1-1-1-1-1-1-1-1-1-1-1--| 
Db--0-0-0-0-3-3-3-3---------------------------------1-1-1-1-1-1-1-1--| 

Eb-------------------------------------------------------------------| 
Bb-------------------------------------------------------------------| 
Gb------------------5-5-5-5-5-5-5-5-3-3-3-3-3-3-3-3------------------| 
Db--0-0-0-0-3-3-3-3-5-5-5-5-5-5-5-5-3-3-3-3-3-3-3-3-5-5-5-5-5-5-1-1--| 
Ab--0-0-0-0-3-3-3-3-3-3-3-3-3-3-3-3-1-1-1-1-1-1-1-1-5-5-5-5-5-5-1-1--| 
Db--0-0-0-0-3-3-3-3---------------------------------5-5-5-5-5-5-1-1--| 

Eb-------------------------------------------------------------------| 
Bb-------------------------------------------------------------------| 
Gb------------------5-5-5-5-5-5-5-5-3-3-3-3-3-3-3-3------------------| 
Db--0-0-0-0-3-3-3-3-5-5-5-5-5-5-5-5-3-3-3-3-3-3-3-3-1-1-1-1-1-1-1-1--| 
Ab--0-0-0-0-3-3-3-3-3-3-3-3-3-3-3-3-1-1-1-1-1-1-1-1-1-1-1-1-1-1-1-1--| 
Db--0-0-0-0-3-3-3-3---------------------------------1-1-1-1-1-1-1-1--| 

Intro 
Eb-------------------------------------------------------------------------------| 
Bb-------------------------------------------------------------------------------| 
Gb-------------------------------------------------------------------------------| 
Db--0-0-8-8-11-11-8-8-0-0---8-8-9-9-8-8-0-0---8-8-11-11-8-8-1-1-8-8-9-9-1-1-0-0--| 
Ab--0-0-8-8-11-11-8-8-0-0---8-8-9-9-8-8-0-0---8-8-11-11-8-8-1-1-8-8-9-9-1-1-0-0--| 
Db--0-0-8-8-11-11-8-8-0-0---8-8-9-9-8-8-0-0---8-8-11-11-8-8-1-1-8-8-9-9-1-1-0-0--| x2 
 

roll up this ad to continue

share this page

See Also: