E-Chords
Eisbrecher

Eisbrecher(Tabs)

Eisbrecher

Verse x2 
 
E|------------------------------------------------------------| 
B|------------------------------------------------------------| 
G|------------------------------------------------------------| 
D|-0---0-0-2p0-2-3-0--0-2p0-2-3------0---0-0-2p0-2-3-0--0-2b3-| 
A|-0---0-0-2p0-2-3-0--0-2p0-2-3------0---0-0-2p0-2-3-0--0-2b3-| 
D|-0---0-0-2p0-2-3-0--0-2p0-2-3------0---0-0-2p0-2-3-0--0-2b3-| 
 

Fill 
 
E|------------------------------------------------------------| 
B|------------------------------------------------------------| 
G|------------------------------------------------------------| 
D|-0---0-0-2p0-2-3-0--0-2b3------0---0-0-2p0-2-3-0--0-2p0-2-3-| 
A|-0---0-0-2p0-2-3-0--0-2b3------0---0-0-2p0-2-3-0--0-2p0-2-3-| 
D|-0---0-0-2p0-2-3-0--0-2b3------0---0-0-2p0-2-3-0--0-2p0-2-3-| 
 

Chorus 
 
E|--------------------------------------------------------------| 
B|--------------------------------------------------------------| 
G|---------3-----------------------5----------------------------| 
D|-0-------3------2-2-3-2-0--------5-----5----------------------| 
A|-0-------1------2-2-3-2-0--------3-----5----------------------| 
D|-0--------------2-2-3-2-0--------------5----------------------| 
 


Bridge 
 
E|------------------------------------------------------------| 
B|------------------------------------------------------------| 
G|------------------------------------------------------------| 
D|--0--0-7s8-0-0-00-7s8---0--0-7s8-0-0-00-0-------------------| 
A|--0--0-7s8-0-0-00-7s8---0--0-7s8-0-0-00-0-------------------| 
D|--0--0-7s8-0-0-00-7s8---0--0-7s8-0-0-00-0-------------------| 

roll up this ad to continue

share this page

See Also: