E-Chords
Eisbrecher

Dornentanz(Tabs)

Eisbrecher

Chorus 
 
|-----------------------------------------| 
|-----------------------------------------| 
|-----------------------------------------| 
|-----------------------------------------| 
|-333--333-4~--333--333-4~----------------| 
|-333--333-4~--333--333-4~-3-333----------| 
 

 Tab from: http://www.guitaretab.com/e/eisbrecher/192599.html  
Bridge 
 
|-----------------------------------------| 
|-----------------------------------------| 
|-----------------------------------------| 
|-3~----4~----3~----4~--------------------| 
|-3~----4~----3~----4~--------------------| 
|-3~----4~----3~----4~--------------------| 
 

Arrangement 
(Note: There is alot of synth, guitar is used like 10% of the whole song, so rather than 
synth being written for guitar, guitar has been written to fit in with the synth. I 
note which rifts fit where) 
Intro (Bridge) 
Verse (Chorus) 
Pre-Chorus (Bridge) 
Chorus 
Verse (Chorus) 
Pre-Chorus (Bridge 
Chorus 
Bridge 
Chorus 
Outro 

roll up this ad to continue

share this page

See Also: