E-Chords
Eisbrecher

Die Engel(Tabs)

Eisbrecher

Key: C#
Tuning: C# G# C# F# A# d# 

Intro 

D#|-------------------------------------------------| 
A#|-------------------------------------------------| 
F#|-------------------------------------------------| 
C#|-11-11-11-11-11-11-11-11-11-11-11-11-11-11-11-11-| 
G#|-11-11-11-11-11-11-11-11-11-11-11-11-11-11-11-11-| 
C#|-11-11-11-11-11-11-11-11-11-11-11-11-11-11-11-11-| 

D#|-------------------------------------------------| 
A#|-------------------------------------------------| 
F#|-------------------------------------------------| 
C#|-9-9-9-9-9-9-9-9-6-6-6-6-6-6-6-6-----------------| 
G#|-9-9-9-9-9-9-9-9-6-6-6-6-6-6-6-6-----------------| 
C#|-9-9-9-9-9-9-9-9-6-6-6-6-6-6-6-6-----------------| 

D#|-------------------------------------------------| 
A#|-------------------------------------------------| 
F#|-------------------------------------------------| 
C#|-11-11-11-11-11-11-11-11-11-11-11-11-11-11-11-11-| 
G#|-11-11-11-11-11-11-11-11-11-11-11-11-11-11-11-11-| 
C#|-11-11-11-11-11-11-11-11-11-11-11-11-11-11-11-11-| 

D#|-------------------------------------------------| 
A#|-------------------------------------------------| 
F#|-------------------------------------------------| 
C#|-9-9-9-9-9-9-9-9-10-10-10-10-10-10-10-10---------| 
G#|-9-9-9-9-9-9-9-9-10-10-10-10-10-10-10-10---------| 
C#|-9-9-9-9-9-9-9-9-10-10-10-10-10-10-10-10---------| 




Verse 

D#|-------------------------------------------------| 
A#|-------------------------------------------------| 
F#|-------------------------------------------------| 
C#|-11-11-11-11-11-11-11-11-11-11-11-11-11-11-11-11-| 
G#|-11-11-11-11-11-11-11-11-11-11-11-11-11-11-11-11-| 
C#|-11-11-11-11-11-11-11-11-11-11-11-11-11-11-11-11-| 

D#|-------------------------------------------------| 
A#|-------------------------------------------------| 
F#|-------------------------------------------------| 
C#|-9-9-9-9-9-9-9-9-6-6-6-6-6-6-6-6-----------------| 
G#|-9-9-9-9-9-9-9-9-6-6-6-6-6-6-6-6-----------------| 
C#|-9-9-9-9-9-9-9-9-6-6-6-6-6-6-6-6-----------------| 

D#|-------------------------------------------------| 
A#|-------------------------------------------------| 
F#|-------------------------------------------------| 
C#|-11-11-11-11-11-11-11-11-11-11-11-11-11-11-11-11-| 
G#|-11-11-11-11-11-11-11-11-11-11-11-11-11-11-11-11-| 
C#|-11-11-11-11-11-11-11-11-11-11-11-11-11-11-11-11-| 

D#|-------------------------------------------------| 
A#|-------------------------------------------------| 
F#|-------------------------------------------------| 
C#|-9-9-9-9-9-9-9-9-10-10-10-10-10-10-10-10---------| 
G#|-9-9-9-9-9-9-9-9-10-10-10-10-10-10-10-10---------| 
C#|-9-9-9-9-9-9-9-9-10-10-10-10-10-10-10-10---------| 


Chorus 

D#|-------------------------------------------------| 
A#|-------------------------------------------------| 
F#|-------------------------------------------------| 
C#|-11-11-11-11-11-11-11-11-11-11-11-11-11-11-11-11-| 
G#|-11-11-11-11-11-11-11-11-11-11-11-11-11-11-11-11-| 
C#|-11-11-11-11-11-11-11-11-11-11-11-11-11-11-11-11-| 

D#|-------------------------------------------------| 
A#|-------------------------------------------------| 
F#|-------------------------------------------------| 
C#|-9-9-9-9-9-9-9-9-6-6-6-6-6-6-6-6-----------------| 
G#|-9-9-9-9-9-9-9-9-6-6-6-6-6-6-6-6-----------------| 
C#|-9-9-9-9-9-9-9-9-6-6-6-6-6-6-6-6-----------------| 

D#|-------------------------------------------------| 
A#|-------------------------------------------------| 
F#|-------------------------------------------------| 
C#|-11-11-11-11-11-11-11-11-11-11-11-11-11-11-11-11-| 
G#|-11-11-11-11-11-11-11-11-11-11-11-11-11-11-11-11-| 
C#|-11-11-11-11-11-11-11-11-11-11-11-11-11-11-11-11-| 

D#|-------------------------------------------------| 
A#|-------------------------------------------------| 
F#|-------------------------------------------------| 
C#|-9-9-9-9-9-9-9-9-10-10-10-10-10-10-10-10---------| 
G#|-9-9-9-9-9-9-9-9-10-10-10-10-10-10-10-10---------| 
C#|-9-9-9-9-9-9-9-9-10-10-10-10-10-10-10-10---------| 


Solo 

Chorus 

D#|-------------------------------------------------| 
A#|-------------------------------------------------| 
F#|-------------------------------------------------| 
C#|-11-11-11-11-11-11-11-11-11-11-11-11-11-11-11-11-| 
G#|-11-11-11-11-11-11-11-11-11-11-11-11-11-11-11-11-| 
C#|-11-11-11-11-11-11-11-11-11-11-11-11-11-11-11-11-| 

D#|-------------------------------------------------| 
A#|-------------------------------------------------| 
F#|-------------------------------------------------| 
C#|-0-0-0-0-0-0-0-0-5-5-5-5-5-5-5-5-----------------| 
G#|-0-0-0-0-0-0-0-0-5-5-5-5-5-5-5-5-----------------| 
C#|-0-0-0-0-0-0-0-0-5-5-5-5-5-5-5-5-----------------| 

D#|-------------------------------------------------| 
A#|-------------------------------------------------| 
F#|-------------------------------------------------| 
C#|-11-11-11-11-11-11-11-11-11-11-11-11-11-11-11-11-| 
G#|-11-11-11-11-11-11-11-11-11-11-11-11-11-11-11-11-| 
C#|-11-11-11-11-11-11-11-11-11-11-11-11-11-11-11-11-| 


D#|-------------------------------------------------| 
A#|-------------------------------------------------| 
F#|-------------------------------------------------| 
C#|-9-9-9-9-9-9-9-9-10-10-10-10-10-10-10-10---------| 
G#|-9-9-9-9-9-9-9-9-10-10-10-10-10-10-10-10---------| 
C#|-9-9-9-9-9-9-9-9-10-10-10-10-10-10-10-10---------| 

ENDING 
D#|-------------------------------------------------| 
A#|-------------------------------------------------| 
F#|-------------------------------------------------| 
C#|-11-11-11-11-11-11-11-11-11-11-11-11-11-11-11-11-| 
G#|-11-11-11-11-11-11-11-11-11-11-11-11-11-11-11-11-| 
C#|-11-11-11-11-11-11-11-11-11-11-11-11-11-11-11-11-| 

D#|-------------------------------------------------| 
A#|-------------------------------------------------| 
F#|-------------------------------------------------| 
C#|-9-9-9-9-9-9-9-9-10-10-10-10-10-10-10-10---------| 
G#|-9-9-9-9-9-9-9-9-10-10-10-10-10-10-10-10---------| 
C#|-9-9-9-9-9-9-9-9-10-10-10-10-10-10-10-10---------| (4X) 

roll up this ad to continue

share this page

See Also: