E-Chords
Eisbrecher

Antikorper(Tabs)

Eisbrecher

Chorus 
 
|--------------------------------------------------------------------| 
|--------------------------------------------------------------------| 
|-------------3~------------------------------3~---------------------| 
|-------------3~------------------------------3~---------------------| 
|--222--22-22-1~---222--22-22-3~----222-22-22-1~--222--22-22-0~------| 
|--222--22-22------222--22-22-3~----222-22-22-----222--22-22-0~------| 
 

 
|--------------------------------------------------------------------| 
|--------------------------------------------------------------------| 
|-------------3~------------------------------3~---------------------| 
|-------------3~------------------------------3~----------33330000---| 
|--222--22-22-1~---222--22-22-3~----222-22-22-1~--222--22-11110000---| 
|--222--22-22------222--22-22-3~----222-22-22-----222--22------------| 
 

Bridge 

 
|----------| 
|----------| 
|----------| 
|----------| 
|----------| 
|-3p2-2222-| 
 


Raised Chorus 
(I will tab it out, but simply you just raise everything two frets) 
Chorus 
 
|--------------------------------------------------------------------| 
|--------------------------------------------------------------------| 
|-------------5~------------------------------5~---------------------| 
|-------------5~------------------------------5~---------------------| 
|--444--44-44-3----444--44-44-5~----444-44-44-3~--444--44-44-2~------| 
|--444--44-44------444--44-44-5~----444-44-44-----444--44-44-2~------| 
 

 
|--------------------------------------------------------------------| 
|--------------------------------------------------------------------| 
|-------------5~------------------------------5~---------------------| 
|-------------5~------------------------------5~----------55554444---| 
|--444--44-44-3----444--44-44-5~----444-44-44-3~--444--44-33332222---| 
|--444--44-44------444--44-44-5~----444-44-44-----444--44------------| 
 

 

roll up this ad to continue

share this page

See Also: