E-Chords
Egotrippi

Mestaripiirros(Tabs)

Egotrippi

roll up this ad to continue

Key: D
 
 


Guitar 1 (verse / Chorus) 

E|---0-----0-----0---0-----0-----0----0-----0-----0---0-----0-----0-| 
B|-----0---------------0-----0----------0---------------0-----0-----| 
G|-----------0--------------------------------0---------------------| 
D|-7-----6-----6--------------------7-----6-----6---------2-----2---| 
A|-----------------2-----4-----4--------------------2---------------| 
E|------------------------------------------------------------------| 

If you don't have a bass guitar backing you up, you can change 7th and 6th from D string  
to 5th and 4th from E string 




Guitar 2 (interlude / Chorus): 

E|------10--12--10----------------10--12--10----------| 
B|--12--------------10--12----12--------------10------| 
G|------------------------------------------------12--| 
D|----------------------------------------------------| 
A|----------------------------------------------------| 
E|----------------------------------------------------| 

In Chorus add: 

E|----10-12-10-14-15-15-14-12-10-------| 
B|-12----------------------------10----| 
G|----------------------------------12-| 
D|-------------------------------------| 
A|-------------------------------------| 
E|-------------------------------------| 



-TK- 
share this page

See Also: