E-Chords
Edgar Winter Group

We All Had A Real Good Time(Tabs)

Edgar Winter Group

roll up this ad to continue

E|----------------------------------x-x---------| 
B|----------------------------------x-x---------| 
G|----------------------------------x-x---------| 
D|----------------------------------x-x---------| 
A|-----------4---4h5p4h5/3--3/5-----x-x---------| 
E|--3h5---3h5-----------------------x-x---9/3---| 

E|---------------------------------------------------| 
B|--------------------------------------12-11-10-----| 
G|--------------------------------9/12---------------| 
D|---------------------------------------------------| 
A|-----------4---4h5p4h5/3--3/5----------------------| 
E|--3h5---3h5----------------------------------------| 
share this page

See Also: