E-Chords
Echo & The Bunnymen

Silver(Tabs)

Echo & The Bunnymen

roll up this ad to continue

Solo 
e|----------------------------------------------------------------------------------------------| 
B|-----------------------------7-------------7---8-8---7-----8/10-10-10--10-10-10--10-10-10--10-| 
G|-9~----9~----9~----9~----9~------9~----9~-----------------------------------------------------| 
D|----------------------------------------------------------------------------------------------| 
A|----------------------------------------------------------------------------------------------| 
E|----------------------------------------------------------------------------------------------| 

e|--------------------------------9/10--10-9--9-9/10--10-9--9-10-9-10-9------------------------| 
B|-8-10-8-7-8-7-7--7h8-7--7h8-7-----------------------------------------10-8--10--10--8h10--10-| 
G|---------------------------------------------------------------------------------------------| 
D|---------------------------------------------------------------------------------------------| 
A|---------------------------------------------------------------------------------------------| 
E|---------------------------------------------------------------------------------------------| 

e|-----------------------------------------------------------------| 
B|-8-7-8-7-------------------------10---8---7-------------------7--| 
G|---------9~----9~----9~------9----------------9---7-----9--------| 
D|-----------------------------------------------------------------| 
A|-----------------------------------------------------------------| 
E|-----------------------------------------------------------------| 

************************************ 

| ~   Vibrato 
| h   Hammer-on 
| /   Slide up 

************************************ 
share this page

See Also: