E-Chords
Don Broco

Thug Workout(Tabs)

Don Broco

roll up this ad to continue

e|------------------------------------------------------------------------| 
B|------------------------------------------------------------------------| 
G|-------4------------4-------4-------------------------------------------| 
D|-2-3-2---2-3--2-3-2---2-3-2---2-3-2-------------------------------------| 
A|-2-3-2---2-3--2-3-2---2-3-2---2-3-2--2/5-x-5-x-5------------------------| 
D|-2-3-2---2-3--2-3-2---2-3-2---2-3-2--2/5-x-5-x-5------------------------| 
repeat x2 
e|---------------------------------------------------------------------------| 
B|---------------------------------------------------------------------------| 
G|---------------------------------------------------------------------------| 
D|---------------------------------------------------------------------------| 
A|--5-3-3-5-5-5-5-3-5-3-5---5-0-3-5-5-5-3-5-3-0------------------------------| 
D|---------------------------------------------------------------------------| 

e|------------------------------------------------------------------------| 
B|------------------------------------------------------------------------| 
G|-------4----------------------------------------------------------------| 
D|-2-3-2---2-3--------------3-2-3-----------------------------------------| 
A|-2-3-2---2-3--------------3-2-3-------2---------------------------------| 
D|-2-3-2---2-3-2-2-2-2-2-0--3-2-3-0-0-0---3-0-----------------------------| 

e|---------------------------------------------------------------------------| 
B|---------------------------------------------------------------------------| 
G|----------------------2----------------------------------------------------| 
D|--4-0-2-4-4-4-4-2-4-2---4-0-2-4-4-4-2-2-0-2-4------------------------------| 
A|---------------------------------------------------------------------------| 
D|---------------------------------------------------------------------------| 

e|--------------------------------------------------------------------------| 
B|--------------------------------------------------------------------------| 
G|--------------------------------------------------------------------------| 
D|--------------------------------------------------------------------------| 
A|--------------------------------------------------------------------------| 
D|--9-10-9-7-9-9-9----------------------------------------------------------| 

e|----10--------10------10------10----10-10--------------------------------| 
B|-------9--------9--------9------9-------9--------------------------------| 
G|---------7--------7--------7------7-----7--------------------------------| 
D|-------------------------------------------------------------------------| 
A|-------------------------------------------------------------------------| 
D|-------------------------------------------------------------------------| 

e|---------------------------------------------------------------------------| 
B|---------------------------------------------------------------------------| 
G|--9-10-9-7-9-7-9-----9-10-7-9-9-9-9----------------------------------------| 
D|---------------------------------------------------------------------------| 
A|---------------------------------------------------------------------------| 
D|---------------------------------------------------------------------------| 

e|---------------------------------------------------------------------------| 
B|---------------------------------------------------------------------------| 
G|---------------------------------------------------------------------------| 
D|--2-----------3-2-3-2------------------------------------------------------| 
A|--2--0-2-3-5b-3-2-3-2------------------------------------------------------| 
D|--2-----------3-2-3-2------------------------------------------------------| 

repeat 
 
share this page

See Also: