E-Chords
Dog Blood

Shred Or Die (kill Em With The Beat)(Tabs)

Dog Blood

roll up this ad to continue

Key: D
For first part, it's 

e|--------------------------------------| 
B|--------------------------------------| 
G|--------------------------------------| 
D|-0-1-0-1--xxx0-1-0-1-1-0-1-1-1-|  x12-| 
A|-0-1-0-1--xxx0-1-0-1-1-0-1-1-1--------| 
D|-0-1-0-1--xxx0-1-0-1-1-0-1-1-1--------| 

Repeat until the rise synth thing comes in, and then play this 


e|-------------------------------------| 
B|-------------------------------------| 
G|-------------------------------------| 
 D|-0-1-0-1-12--xxx0-1-0-1-1-0-1-1-1---| 
A|-0-1-0-1--12--xxx0-1-0-1-1-0-1-1-1---| 
D|-0-1-0-1--12--xxx0-1-0-1-1-0-1-1-1---| 

until the breakdown, and then it goes like this 

e|-------------------------| 
B|-------------------------| 
G|-------------------------| 
D|-0-0-3-1-xxxx-0-3-1------| 
A|-0-0-3-1-xxxx-0-3-1------| 
D|-0-0-3-1-xxxx-0-3-1------| 

and then after, it goes: 

e|-------------------------| 
B|-------------------------| 
G|-------------------------| 
D|-0-0-3-1-xxxx-0-3-1------| 
A|-0-0-3-1-xxxx-0-3-1------| x2 
D|-0-0-3-1-xxxx-0-3-1------| 


e|----------------------------| 
B|----------------------------| 
G|----------------------------| 
D|-0-0-3-1-xxxx-0-3-3-12-11---| 
A|-0-0-3-1-xxxx-0-3-3-12-11---| 
D|-0-0-3-1-xxxx-0-3-3-12-11---| 

 
share this page

See Also: