E-Chords
Dishwalla

Today Tonight(Tabs)

Dishwalla

TABBED BY:   el sancco ([email protected])

If you wish to use this tab on a site or claim credit 
for it, please inform me before hand.  Thanks!


MAIN RIFF:
----------

e|---------------------------------------------------------------------|
B|--------0h1-------------0h1--------------0h1-------------------------|
G|------2-----2-----2---------2------2---------2---------2-------2-----|
D|----2---------2-----0---------0------0----------0---------0-------0--|
A|--0-------------2-----2---------3------3-----------------------------|
E|-----------------------------------------------------2-------2-------|


CHORUS:
-------

e|---0---2---3---3---3---|
B|---1---3---3---3---3---|
G|---0---2---0---0---0---|
D|---2---0---0---0---X---|
A|---3-------2---X---2---|
E|---------------2---0---|



---------------------------------------------
Transcribed By SANCCO ([email protected])
---------------------------------------------

roll up this ad to continue

share this page

See Also: