E-Chords
Dishwalla

Mad Life(Tabs)

Dishwalla

Key: Cadd9
TABBED BY:   el sancco ([email protected])

If you wish to use this tab on a site or claim credit 
for it, please inform me before hand.  Thanks!


INTRO/BRIDGE RIFF:
------------------

e|---------------------------------------------------|
B|--7---7---7---5---5---5---3---3---3-----3-----3----|
G|----0---0---0---0---0---0---0---0---0-----0-----0--|
D|---------------------------------------------------|
A|--7---7---7---5---5---5---3---3---3---2-----3------|
E|---------------------------------------------------|


VERSE:
------
   Cadd9    Em7      G
e|---0-------3-------3---|
B|---3-------3-------3---|
G|---0-------0-------0---|
D|---2-------2-------0---|
A|---3-------2-------2---|
E|-----------0-------3---|

GUITAR 2 - VERSE RIFF
e|-------0--|
B|--3-------|
G|-----0----|
D|----------|
A|----------|
E|----------|


PRE-CHORUS:
-----------
Am                    C
To believe in... To believe in 


CHORUS:
-------
    G5    D     Am    C  
e|--3-----2-----0-----0--|
B|--3-----3-----1-----1--|
G|--0-----2-----2-----0--|
D|--0-----0-----2-----2--|
A|--x-----------0-----3--|
E|--3--------------------|


POST-CHORUS:
------------

e|--0---x---0-------|
B|--7---7---12---3--|
G|--0---x---0----2--|
D|--5---7---10---0--|
A|--7---5---12---0--|
E|--0---0-----------|


---------------------------------------------
Transcribed By SANCCO ([email protected])
---------------------------------------------

roll up this ad to continue

share this page

See Also: