E-Chords
Dishwalla

Angels Or Devils (acoustic)(Tabs)

Dishwalla

Key: C
Intro: 
     C         G6                  Am             Em             
e|---------------------------------------------------------------------------------------| 
B|------1------0----0----1---3-----1-----1----------0----0----0--------------------------| 
G|---0---0-----0----0----0---0-----2-2----2---------0----0----0--------------------------| 
D|---2-------------------------------------2---------------------------------------------| 
A|---3-----------------------------0---0----0-----2----2----2---2/3----------------------| 
E|-------------3----3--3---3-3-----------------0-----------------------------------------| 


verse 1/2: 
    
           This is the last time...                That im..   here tonight.... 
    C                  G6                    Am                Em 
e|---------------------------------------------------------------------------------------| 
B|------1---1---1------0-----0----1-----3----1----1---1---1----0----0---0---0------------| 
G|------0---0---0------0-----0----0-----0----2----2---1---1----0----0---0---0------------| 2x 
D|----2--------------------------------------2----2---2---2------------------------------| 
A|--3-----3---3---3--------------------------0--0---0---0---0-----------------(2/3)------|>(2/3)1x 
E|---------------------3---3---3--3--3--3-3--------------------0--0---0---0--------------| 

    Inside,i can see the pain in you  
    F                    Dm                                F 
e|--1----1---1---1-------1-----1---1---1--------|      e|----------------------------------| 
B|--1----1---1---1-------3-----3---3---3--------|      B|--1----1---1---1---1---1---1---1--| 
G|--2----2---2---2-------2-----2---2---2--------| 4X   G|--2----2---2---2---2---2---2---2--|  
D|-----------------------0---0---0---0---0------|      D|--3----3---3---3---3---3---3---3--| 
A|----------------------------------------------|      A|----------------------------------| 
E|--1--1---1---1---1----------------------------|      E|--1--1---1---1---1---1---1---1---1| 


Chorus: 
             The angels-burn inside for-   us are we       ever---      are we ever gonna learn to- 
    C                  E                  Am                Am/GF      F 
e|---------------------------------------------------------------------------------------| 
B|--1----1---1---1-----0----0---0---0-----1----1---1---1----1----1-----1-----1-----------| 
G|--0----0---0---0-----1----1---1---1-----2----2---2---2----0----0-----2-----2-----------| 
D|--2----2---2---2-----2----2---2---2-----2----2---2---2----2----2-----3-----3-----------| 
A|--3--3---3---3---3----------------------0--0---0---0---0-------------------------------| 
E|---------------------0--0---0---0---0---------------------3--3---3---1---1---1---------| 


   fly the devils they burn inside of-    us are we  ever gonna..back down 
    C                  E                  Am         Am/G       D/F# 
e|--------------------------------------------------------------2-----1---1---1-----------| 
B|--1----1---1---1-----0----0---0---0-----1----1-----1----1-----3-----3---3---3-----------| 
G|--0----0---0---0-----1----1---1---1-----2----2-----0----0-----2-----2---2---2-----------| 
D|--2----2---2---2-----2----2---2---2-----2----2-----2----2-------------------------------| 
A|--3--3---3----3--3----------------------0--0---0----------------------------------------| 
E|---------------------0--0---0---0---0--------------3--3---3---2---2---2---2---2---------| 


    come around I'm always gonna worry about the things that could make us cold 
         F                                                                   
e|----------------------------------------------------------------------------------------| 
B|--1----1---1---1---1---1---1---1--------------------------------------------------------| 
G|--2----2---2---2---2---2---2---2--------------------------------------------------------| 
D|--3----3---3---3---3---3---3---3--------------------------------------------------------| 
A|----------------------------------------------------------------------------------------| 
E|--1--1---1---1---1---1---1---1---1------------------------------------------------------| 

Repeat verse 1:  

Bridge: 

   
    if       I were to  give in  give it up and then 
     Am       Am/B      Am/C     Am/B          Am 
e|---------------------------------------------------------------------------------------| 
B|-------1--------1---------1--------1-------------1-------------------------------------| 
G|------2-2------0-0-------0-0------0-0-----------2-2------------------------------------| 
D|-----2---2----2---2-----2---2----2---2---------2---2-----------------------------------| 
A|---0--------2---------3--------2-------------0-----------------------------------------| 
E|---------------------------------------------------------------------------------------| 

         
 I take a breath make it deep        cause it might be the last one you get 
         Am/B           Am/C                    D/F#        F 
e|----------------------------------------------2-----------1---------------------------| 
B|----------2--------------1--------------------3-----------1---------------------------| 
G|---------0-0------------0-0-------------------2-----------2---------------------------| 
D|--------2---2----------2---2------------------------------3---------------------------| 
A|-------2--------------3-----------------------------------3---------------------------| 
E|----------------------------------------------2-----------1---------------------------| 


OUTRO: 
                 
  it could make us     cold------------------------------------ 
                 C              E         Am     Am  G     F 
e|------------------------------------------------------------1------------------------| 
B|-------------------1----1----------0-----1--------1---------1------------------------| 
G|--------------------0----0-------1--------2--------0--------2------------------------| 
D|-----------------2--------------2-------2-------2---------3--------------------------| 
A|---------------3------3--------2-------0-----------------3---------------------------| 
E|------------------------------0----------------3--------1----------------------------| 



  it could make us     cold----------------------------------- 
                 C              E        Am      Am G     D#     
e|--------------------------------------------------------2----------------------------| 
B|-------------------1----1----------0-----1--------1-----3----------------------------| 
G|--------------------0----0-------1--------2--------0----2----------------------------| 
D|-----------------2--------------2-------2-------2-------0----------------------------| 
A|---------------3------3--------2-------0----------------0----------------------------| 
E|------------------------------0----------------3--------2----------------------------| 


    I'm always gonna worry about the things that could make us cold 

    F                                                           C 
e|------------------------------------------------------------------------------------------| 
B|--1----1---1---1---1---1---1---1---------------------------------1----1-------------------| 
G|--2----2---2---2---2---2---2---2--------------------------------0-0---0-------------------| 
D|--3----3---3---3---3---3---3---3-------------------------------2---2--2-------------------| 
A|--------------------------------------------------------------3-------3-------------------| 
E|--1--1---1---1---1---1---1---1---1--------------------------------------------------------| 

THATS IT! RATE THIS!  


************************************ 

| /   slide up 
| \   slide down 
| h   hammer-on 
| p   pull-off 
| ~   vibrato 
| +   harmonic 
| x   Mute note 
| b   Bend 
| pb  Pre-bend 
| br  Bend release 
| pbr Pre-bend release 
| brb Bend release bend 
| ph  Pilipinas! 



************************************ 

roll up this ad to continue

share this page

See Also: