E-Chords
Dishwalla

Angels And Devils(Tabs)

Dishwalla

 

Intro 
E|-------------------------------------------------| 
B|--0----0----------------0----0--0----------3-----| 
G|--0----0--2-------0--2--0----0--0----------2--2--| 
D|----------4----4------------------------0--------| 
A|----------5------------------------2-------------| 
E|--3---------------------0------------------------| 

Verse 
E|-----------------------------------------------------------------------------------| 
B|--0----0-----0--3----------------------------------------------0-------------3-----| 
G|--0-------2----------------0--2--0--------0-----0-----0-----0----------------2--2--| 
D|----------------------4----------------2-----4-----4-----4-----------0--0----------| 
A|-------------------5----------------2-----------------------------2----------------| 
E|--3------------------------------0-------------------------------------------------| 

E|-------------------------------------------------------------------------| 
B|--0----0-----0--3-----------------------------------------0--------------| 
G|--0-------2--------------0--2--0-----------0-----0-----------------------| 
D|----------------------4-----------------2-----4-----4--------4--0-----2--| 
A|-------------------5-----------------2-----------------2-----------2--3--| 
E|--3-------------------------------0--------------------------------------| 

Refrain 
E|---------------------------------------------------------------| 
B|--------------------0--0-----------------------------0--0h1p0--| 
G|-----------0-----2--------------------------0-----2------------| 
D|--2--2--4-----2-----------------2--2--2--4-----2---------------| 
A|-----------------0--------------3-----------------0------------| 
E|---------------------------------------------------------------| 

E|-------------------------------------------------------| 
B|--1----3--1--1--0-----------0---------1----0--0--------| 
G|--0----------------2--0--2------------0----------2--0--| 
D|--2----------------------------2------2-------------0--| 
A|--3----------------0------------------3-------------2--| 
E|----------------------------------------------------3--| 

Chorus 
E|--------------------------------------------0--------------------------------------| 
B|-----------0--4-----0-----0--------------0-----------------------------------------| 
G|-----0--2--------------2-----0--0--0--2--------------0--2--0--2--0--2--0--2-----0--| 
D|--0--------------------------2-----0--------------2--------------------------0--0--| 
A|-----------------2-----------2-----------------3--------------------------------2--| 
E|-----------------------------0--------------------------------------------------3--| 

E|--------------------------------------------------------0--------------| 
B|-----------0--4-----0-----0--------------0--------------2--0-----------| 
G|-----0--2--------------2-----2--2--0--2-----2--0--2--0--2-----2--0--0--| 
D|--0--------------------------2--------0-----------------2-----------2--| 
A|-----------------2-----------2--------------------------4-----------3--| 
E|-----------------------------0-----------------------------------------| 


E|-------------------------------------------------------------3-------| 
B|-----0-----0-----0-----0-----0-----0-----0--------------1----1----0--| 
G|--0-----2-----2-----2-----------2-----2-----2--0--------0----0----0--| 
D|-----------------------------------------------0--------0----0----0--| 
A|--------------------------3--------------------2--------2----2----2--| 
E|-----------------------------------------------3--------3----3----3--| 

Verse 
E|-----------------------------------------------------------------------------------| 
B|--0----0-----0--3----------------------------------------------0-------------3-----| 
G|--0-------2----------------0--2--0--------0-----0-----0-----0----------------2--2--| 
D|----------------------4----------------2-----4-----4-----4-----------0--0----------| 
A|-------------------5----------------2-----------------------------2----------------| 
E|--3------------------------------0-------------------------------------------------| 

E|--------------------------------------------------------------------------------------------| 
B|--0----3--3--3--1--0---------------------------------------------------------0--------------| 
G|--0-------------------2--------0--2--0-----------0-----0-----0-----0------------------------| 
D|----------------------------4-----------------2-----4-----4-----4-----4---------4--0-----2--| 
A|-------------------------5-----------------2------------------------------2-----------2--3--| 
E|--3-------------------------------------0---------------------------------------------------| 

Refrain 
E|-------------------------------------------------------------------------| 
B|--------------------0--0-----------------------------0--0h1p0---------0--| 
G|-----------0-----2--------------------------0-----2------------2p0h2-----| 
D|--2--2--4-----2-----------------2--2--2--4-----2-------------------------| 
A|-----------------0--------------3-----------------0----------------------| 
E|-------------------------------------------------------------------------| 

E|-------------------------------------------------------| 
B|--1----3--1--1--0-----------0---------1----0--0--------| 
G|--0----------------2--0--2------------0----------2--0--| 
D|--2----------------------------2------2-------------0--| 
A|--3----------------0------------------3-------------2--| 
E|----------------------------------------------------3--| 

Chorus 
E|--------------------------------------------0--------------------------------------| 
B|-----------0--4-----0-----0--------------0-----------------------------------------| 
G|-----0--2--------------2-----0--0--0--2--------------0--2--0--2--0--2--0--2-----0--| 
D|--0--------------------------2-----0--------------2--------------------------0--0--| 
A|-----------------2-----------2-----------------3--------------------------------2--| 
E|-----------------------------0--------------------------------------------------3--| 

E|--------------------------------------------------------0--------------| 
B|-----------0--4-----0-----0--------------0--------------2--0-----------| 
G|-----0--2--------------2-----2--2--0--2-----2--0--2--0--2-----2--0--0--| 
D|--0--------------------------2--------0-----------------2-----------2--| 
A|-----------------2-----------2--------------------------4-----------3--| 
E|-----------------------------0-----------------------------------------| 

E|--------------------------------------------------| 
B|-----0-----0-----0-----0-----1--1-----1--0--1--0--| 
G|--0-----2-----2-----2-----------------------------| 
D|--------------------------------------------------| 
A|--------------------------3-----------------------| 
E|--------------------------------------------------| 

Bridge 
E|---------------------------------------------------------------------------------------------------------------------------| 
B|----------0------------------------------------------0-----------------0--------0-------------------0-------1--0--1--0-----| 
G|-------0-----2--0--2-------------0----------------0-----2--0--2-----0-----2--0-----0--2----------0-----0-------------------| 
D|-------------------------2----4-----4----2--2--2-----------------2-----------------------2----2----------------------------| 
A|-----------------------------------------------------------------------4--------3-------------------3----------------------| 
E|--0-------2-----------3-------2-------------0--------2--------3---------------------------------------------------------3--| 

Outro 
E|--3--3--2-----------2--3--2--0--0--------------0-------------------| 
B|--3-----------4--5-----0--------------3-------------1--0--1--0-----| 
G|--0-----------4--------0-----------------2--0----------------------| 
D|--0--------------------2-----------0-------------------------------| 
A|--2--------2-----------2-----------------3-------------------------| 
E|--3--------------------0----------------------------------------3--| 

E|--3--5--2-----------2--3--2--0--0--------------0-------------------------------------------------------------| 
B|--3-----------4--5-----0--------------3-------------0-------0-----0-----0-----0-------0-----0-----0----------| 
G|--0-----------4--------0-----------------2--0-------0----2-----2-----2-----2-------------2-----2-----2-------| 
D|--0--------------------2-----------0----------------2-----------------------------------------------------0--| 
A|--2--------2-----------2-----------------4----------3----------------------------3------------------------2--| 
E|--3--------------------0----------------------------------------------------------------------------------3--| 


************************************ 

| h  Hammer-on 
| p  Pull-off 

************************************ 

roll up this ad to continue

share this page

See Also: