E-Chords
Dirty Heads

I Got No Time(Tabs)

Dirty Heads

roll up this ad to continue

Key: G
e|---------------------------------------------------------------------------| 
B|---------------------------------------------------------------------------| 
G|-----------9-11h--9---9-11h/p-9--------------------------------------------| 
D|-----------9------9-------------11--9/11\9/11\9----------------------------| 
A|--------9---------------------------9/11\9/11\9----------------------------| 
E|----5/7--------------------------------------------------------------------| 


e|---------------------------------------------------------------------------| 
B|---------------------------------------------------------------------------| 
G|-------------9-11h--9--9-11h/13---9-11h/p-9-------9/11\9/11\9---9----------| 
D|----------9--9------9-----------------------11----9/11\9/11\9---9----------| 
A|----9-11h------------------------------------------------------------------| 
E|---------------------------------------------------------------------------| 


e|---------------------------------------------------------------------------| 
B|----------------------------7--7-7-7---------------------------------------| 
G|----------------------------7--7-7-7---------------------------------------| 
D|----7-*-7-7-*--7-7-*-7-7/11-5--5-5-5---------------------------------------| 
A|----7-*-7-7-*--7-7-*-7-7/11------------------------------------------------| 
E|----5-*-5-5-*--5-5-*-5-5/9-------------------------------------------------| 
          ^      ^     ^ 
 
share this page

See Also: