E-Chords
Digital Summer

Sweet Misery(Tabs)

Digital Summer

roll up this ad to continue

Key: C
Tuning: Drop C 

Intro / Verse 

d|---------------------------------------------------------------------------| 
A|---------------------------------------------------------------------------| 
F|---------------------------------------------------------------------------| 
C|-----------6-----------6---6---------4h6p4---6---------4h6p4---6-----------| 
G|---------7---7-----------7-----------------7-----------------7-------------| 
C|--44-4-4--------44-4-4--------00-0-0------------00-0-0---------------------| 
    .. . .        .. . .        .. . .            .. . .  

Pre-Chorus 

d|---------------------------------------------------------------------------| 
A|---------------------------------------------------------------------------| 
F|--------------------------------2-2-22--XX--2-2-22--XX-XX------------------| 
C|--4-4-44--XX-XX--4-4-44--XX-XX--0-0-00--XX--0-0-00--XX-XX------------------| 
G|--4-4-44--XX-XX--4-4-44--XX-XX--0-0-00--XX--0-0-00--XX-XX------------------| 
C|--4-4-44--XX-XX--4-4-44--XX-XX--0-0-00--XX--0-0-00--XX-XX------------------| 

Chorus (figure out the strum yourself) 

d|---------------------------------------------------------------------------| 
A|---------------------------------------------------------------------------| 
F|--6--4--9--9---------------------------------------------------------------| 
C|--7--2--7--7---------------------------------------------------------------| 
G|--4--2--7--7---------------------------------------------------------------| 
C|--4--2--7--7---------------------------------------------------------------| 

Outro 

d|---------------------------------------------------------------------------| 
A|---------------------------------------------------------------------------| 
F|--6--4--9------------------------------------------------------------------| 
C|--7--2--0------------------------------------------------------------------| 
G|--4--2--0------------------------------------------------------------------| 
C|--4--2--0------------------------------------------------------------------| 


Lyrics: 

The night air is cold 
But I don't mind 
'Cause I have my pain to keep me warm 
And inside I try 
Try not to be 
So pathetic 
So pathetic, can't you see? 

That I'm falling 
and I'm fading 
as I'm crashing on my knees 
All this hatred filled with pleasure 
If you love me set me free 

Hold on 
Don't let me go 
From this sweet misery that I know 
And hold on 
Don't let me go 
From this sweet misery that I know 

I can count on these hands 
Just how many times 
That I have tried to change my life 
I can't breathe 'cause it burns, 
inside of me 
I'm so desperate 
So desperate, can't you see? 

That I'm falling 
And I'm fading 
As I'm crashing on my knees 
If I were to stop breathing, 
would you breathe for me? 

And, hold on 
Don't let me go 
From this sweet misery that I know 
And hold on 
Don't let me go 
From this sweet misery that I know 

Misery 
Misery 
Singing don't let me go 
Please just hold on to me 
(hold on to me) 
Won't you hold on to me 
(won't you hold on to me) 
Don't let me go 

Don't let me go 
Singing don't let me go 

Hold on 
Don't let me go 
From this sweet misery that I know 
Hold on 
Don't let me go 
From this sweet misery that I know 

And hold on 
Don't let me go 
From this sweet misery that I know 
And hold on 
Don't let me go 
From this sweet misery that I know 

Misery 
Misery 
Singing don't let me go 

************************************ 

| /   slide up 
| \   slide down 
| h   hammer-on 
| p   pull-off 
| ~   vibrato 
| +   harmonic 
| x   Mute note 
| b   Bend 
| pb  Pre-bend 
| br  Bend release 
| pbr Pre-bend release 
| brb Bend release bend 

************************************ 
share this page

See Also: