E-Chords
Diez 80

Tu viejo(Tabs)

Diez 80

Key: G5
Diez 80 - Tu viejo 
Tabbed by: Roberto 'grunger-punker' Ferrin 
Afinacion: standard 
 
Intro: 
 
Guitar 1: 
   p.m. 
e|----------------------------------| 
B|----------------------------------| 
G|----------------------------------| 
D|----------------------------------| 
A|-7...............3...............-| 
E|-5...............1...............-| 
 
Guitar 2: 
e|---------------------------------| 
B|---------------------------------| 
G|---------------------------------| 
D|---------------------------------| 
A|----7-7-7--7-7-7----3-3-3--3-3-3-| 
E|---------------------------------| 
 
Guitar 1: 
   p.m.                    let ring 
e|--------------------------------| 
B|--------------------------------| 
G|--------------------------------| 
D|--------------------------------| 
A|-7...............3.......5------| 
E|-5...............1.......3------| 
 
Guitar 2: 
e|-------------------------------| 
B|-------------------------------| 
G|-------------------------------| 
D|-------------------------5-----| 
A|---7-7-7--7-7-7----------5-----| 
E|-------------------------3-----| 
 
 
Luego toca esto: 
 
Guitar 1: 
e|------------------------------------------------------------------| 
B|------------------------------------------------------------------| 
G|------------------------------------------------------------------| 
D|---------------------------------5-5-5-5-5-5-5-5-7-7-7-7-7-7-7-7--| X 3 
A|-5-5-5-5-5-5-5-5-2-2-2-2-2-2-2-2-3-3-3-3-3-3-3-3-5-5-5-5-5-5-5-5--| 
E|-3-3-3-3-3-3-3-3-0-0-0-0-0-0-0-0-x-x-x-x-x-x-x-x-x-x-x-x-x-x-x-x--| 
 
La segunda vez, la 2da guitarra toca este riff: 
       G5           E5           C5           D5 
e|---------------------------------------------------------| 
B|-------------------------------8-6-5-6-5----8-6-5-6-5----| 
G|-0-0-0-4-5-7-5-4--0-4-5-7-5-4------------5------------5--| 
D|---------------------------------------------------------| X 2 
A|---------------------------------------------------------| 
E|---------------------------------------------------------| 
 
 
Verse: 
G5                    E5 
Te mato el demoraste, te mato el demoraste, 
C5                        D5 
te mato por te confiaste, te mato y no te apuraste 
 
G              Em               C             D 
Ya te dije que no me ire no me ire no no me ire 
G              Em               C             D 
Ya te dije que no me ire no me ire no no me ire 
 
 
Ok, esa es la estructura básica de toda la cancion. Repetir los riffs las veces necesarias. 
 
Comentarios/sugerencias/chat: 
[email protected] 
www.robmusica.8m.com 

roll up this ad to continue

share this page

See Also: