E-Chords
Diez 80

Lorem Ipsum(Tabs)

Diez 80

Key: C5
Diez 80 - Lorem Ipsum 
Tabbed by: Roberto 'anti-snobs' Ferrin 
Afinacion Standard 
 
Escucha el cd para que caches el ritmo 
 
Intro: 
e|--------------------------------------------------| 
B|--------------------------------------------------| 
G|--------------------------------------------------| 
D|-5-5-5-------8-8-8-------5-5-5-------8-8-8-8-8-8--| X 5 
A|-3-3-3-6-6-6-6-6-6-8-8-8-3-3-3-4-4-4-6-6-6-6-6-6--| 
E|-------4-4-4-------6-6-6-------6-6-6--------------| 
 
 
Verse: 
             C5        G#5                Eb5      Bb5 
Muerte al lambon que perrea siempre muere ya maricon 
       C5   G#5               Eb5       Bb5 
encebollado de la madrina me gusta con chifle y pan 
 
 
Chorus: 
C5         G#5         Eb5         Bb5 
Dejennos vivir en paz, no queremos molestar 
C5         G#5         Eb5         Bb5 
Dejennos vivir en paz, no queremos fastidiar 
      C5  G#5  Eb5  Bb5 
Fastidiar (x 3) 
      G#5   Bb5 
Fastidiar 
 
(se repite verso y coro) 
 
Luego, el solo: 
   C5       Eb5 
e|----------------------| 
B|----------------------| 
G|-5........8...7-8-10--| 
D|----------------------| 
A|----------------------| 
E|----------------------| 
 
   C5       Eb5 
e|----------------------| 
B|----------------------| 
G|-5........12...10-8-7-| 
D|----------------------| 
A|----------------------| 
E|----------------------| 
 
   C5       Eb5 
e|----------------------| 
B|----------------------| 
G|-5........8...7-8-10--| 
D|----------------------| 
A|----------------------| 
E|----------------------| 
 
   C5       Eb5            G#5      Bb5 
e|-----------------------------------------| 
B|---------------15-16-18--13.........13/--| 
G|-12.......15...--------------------------| 
D|-----------------------------------------| 
A|-----------------------------------------| 
E|-----------------------------------------| 
 
 
Outro: 
D5  Bb5  F5  C5 (x 2) 
 
D5         Bb5        F5          C5 
Dejennos vivir en paz no queremos molestar (x 2) 
 
       D5  Bb5  F5  C5 
Fastidiar  (x 3) 
 
      Bb5  C5  D5 
Fastidiar 
 
Y esa es toda la canción, pienso que no tiene errores. 
 
Comentarios/sugerencias/chat: 
[email protected] 
www.guerrerosdecarton.9f.com 
 

roll up this ad to continue

share this page

See Also: