E-Chords
Diez 80

GW(Tabs)

Diez 80

Key: D5
Diez 80 - GW 
Tabbed by: Roberto 'el DVDE' Ferrín 
Afinacion Standard 
 
Escucha el cd para que caches el ritmo 
 
Intro: 
   p.m. 
e|------------------------------------------------| 
B|------------------------------------------------| 
G|------------------------------------------------| 
D|-7........---------4........--------------------| 
A|-5........7........2........4........5........--| 
E|----------5........---------2........3........--| 
 
 
La segunda guitarra toca este riff: 
e|-----------------| 
B|-----------------| 
G|--7-7-7-6--------| 
D|----------9-9/4--| X 3 
A|-----------------| 
E|-----------------| 
 
La primera guitarra sigue con esto: 
e|--------------------------------------------------| 
B|--------------------------------------------------| 
G|--------------------------------------------------| 
D|-7-7-7-7-4-4-4-4----------------------------------| 
A|-5-5-5-5-2-2-2-2-4-4-4-4-4-4-4-4-5-5-5-5-5-5-5-5--| 
E|-----------------2-2-2-2-2-2-2-2-3-3-3-3-3-3-3-3--| 
 
 
Verse: 
D5                        A5 
Ella siempre punk ha escuchado 
B5                   F#5 
y con nadie ha conversado 
G5       D5           B5 
         porque no tenia con quien 
F#5                         G5 
porque no tenia con quien hablar 
 
Luego toca este riff: 
e|---------------------------------------------------------| 
B|---------------------------------------------------------| 
G|---------------------------------------------------------| 
D|-7-7-x--7-7-x----------------4-4-x--4-4-x----------------| 
A|-5-5-x--5-5-x--7-7-x--7-7-x--2-2-x--2-2-x--4-4-x--4-4-x--| 
E|---------------5-5-x--5-5-x----------------2-2-x--2-2-x--| 
                 hablar...                   hablar... 
 
e|---------------------------------------------| 
B|---------------------------------------------| 
G|---------------------------------------------| 
D|---------------7....4....--------------------| 
A|-5-5-x--5-5-x--5....2....4........5........--| 
E|-3-3-x--3-3-x------------2........3........--| 
 
 
Bueno, esa es la estructura basica de la cancion. Repite los riffs las veces necesarias. 
 
Comentarios/correcciones/chat: 
[email protected] 
www.robmusica.8m.com 

roll up this ad to continue

share this page

See Also: