E-Chords
Diamond Head

We Wont Be Back(Tabs)

Diamond Head

roll up this ad to continue

Intro 

  Riff 1 
e|--------------------------------------------------------------------| 
B|--------------------------------------------------------------------| 
G|----------------------5-----------------7-----------5---------------| x11 
D|----------------------5-----------------7-----------5---------------| 
A|-----12\-----0--0--0-----0--0--0--5--7-----5--6--7------------------| 
E|--------------------------------------------------------------------| 

e|-----------------------------------------------------------------| 
B|-----------------------------------------------------------------| 
G|----------------------5~----------------7-----------5------------| 
D|-------------------------7p5------------7-----------5------------|x1 
A|-----------0--0--0------------7---5--7-----5--6--7---------------| 
E|-----------------------------------------------------------------| 

  Riff 2 
e|-------------------------------------------------------------| 
B|--------------------6(6)-----------6--------6/8--8^----------| 
G|--------------------5(5)-----------5--------5/7--7^----------|x2 
D|-----------0--0--0--------0--0--0-----0--0-------------------| 
A|-------------------------------------------------------------| 
E|-------------------------------------------------------------| 
  

Pre-Chorus 

e|------------------------------------------------------------------------------------| 
B|---------------------------------------------------------8-----------------8--------| 
G|----------------5-----------------7-----------5(5)-------7--------5--------7--------| 
D|----------------5-----------------7-----------5(5)-------5--------5--------5--------| 
A|-------0--0--0-----0--0--0--5--7-----5--6--7--3(3)-------x--------3--------x--------| 
E|---------------------------------------------------------x-----------------x--------| 


Chorus 
                'We Won't Be Back......' 
e|-------------------------------------------------------| 
B|------------------------8------------------------------| 
G|------2(2)--------------7-------------5-----7----------| 
D|------2(2)--------------5-------------5-----7----------| 
A|------0(0)--------------x-------------3-----5----------| 
E|------------------------x------------------------------| 

        Or it could be played like this              
               'We Won't Be Back......' 
e|------------------------------------------------------| 
B|------------------------------------------------------| 
G|------2(2)--------------12-----------5-----7----------| 
D|------2(2)--------------12-----------5-----7----------| 
A|------0(0)--------------10-----------3-----5----------| 
E|------------------------------------------------------| 

                                                               
  Riff 3                                                         Let it Ring 
e|----------------------------------------------------------|--------3----------| 
B|----------------------------------------------------------:--------6----------| 
G|----------------------------------------------------------|--------5----------| 
D|---------------7-----------5--------7-----------5---------|--------3----------| 
A|---------5--7-----5--6--7-----5--7-----5--6--7------------:--------x----------| 
E|----------------------------------------------------------|--------x----------| 
                           (x2)                                 (Upward Pick) 


Bridge 

Riff 4 
e|-----------------------------------------------------|--------------------------------------------| 
B|-----------------------------------------------------:--------------------------------------------| 
G|-----------------------------------------------------|-----------------------------------2(2)-----|x4 
D|-----2--------4--------2-------4--------5--4---------|-----------------------------------2(2)-----| 
A|--------3--0-----5--0----3--0-----5--0--------5--0---:--3--2--0--3--2--0--3--2--0--3--2--0(0)-----| 
E|-----------------------------------------------------|--------------------------------------------| 
share this page

See Also: