E-Chords
Diamond Head

Its Electric(Tabs)

Diamond Head

roll up this ad to continue

e|----------------| 
B|----------------| 
G|----------------| 
D|-/5-3---3-------| 
A|------5---5-4-3-| 
E|----------------| x1 

e|------------------------------| 
B|------------------------------| 
G|------------------------------| 
D|---------3-----3------3-----5-| 
A|---------1-----1------1-(0)-3-| 
E|-3-3-3-3---3-3----3-3---------| x4 
                                  (PM) 
e|-----------------------| 
B|-----------------------| 
G|-5--5--5-------5-----5-| 
D|-5--5--5-------5--3--5-| 
A|-3--3--3-------3--3--3-| 
E|------------------1----| x1 

e|----------------| 
B|----------------| 
G|----------------| 
D|-/5-3---3-------| 
A|------5---5-4-3-| 
E|----------------| x1 

e|-----------------------------------------| 
B|-----------------------------------------| 
G|---------------------3-------------------| 
D|-3-5-----------------3-3-----------------| 
A|-3-5-----------------1-3-----------------| 
E|-1-3-------------------1-----------------| x8 
       'I'm gonna be a rock n'roll star...' 

e|------------------------------| 
B|------------------------------| 
G|------------------------------| 
D|---------3-----3------3-----5-| 
A|---------1-----1------1-(0)-3-| 
E|-3-3-3-3---3-3----3-3---------| x7 
                                  (PM) 
'It's electric...' 

e|-----------------------| 
B|-----------------------| 
G|-5--5--5-------5-----5-| 
D|-5--5--5-------5--3--5-| 
A|-3--3--3-------3--3--3-| 
E|------------------1----| x1 
           'Whoah!' 

e|-----------------------------------------| 
B|-----------------------------------------| 
G|---------------------3-------------------| 
D|-3-5-----------------3-3-----------------| 
A|-3-5-----------------1-3-----------------| 
E|-1-3-------------------1-----------------| x8 
       'I stop on red but I leave on amper...' 

e|------------------------------| 
B|------------------------------| 
G|------------------------------| 
D|---------3-----3------3-----5-| 
A|---------1-----1------1-(0)-3-| 
E|-3-3-3-3---3-3----3-3---------| x7 
                                  (PM) 
'It's electric...' 

e|-----------------------| 
B|-----------------------| 
G|-5--5--5-------5-----5-| 
D|-5--5--5-------5--3--5-| 
A|-3--3--3-------3--3--3-| 
E|------------------1----| x1 

-insert solo here- 

Rhythm for solo: 

e|------------------------------| 
B|------------------------------| 
G|------------------------------| 
D|---------3-----3------3-----5-| 
A|---------1-----1------1-(0)-3-| 
E|-3-3-3-3---3-3----3-3---------| x4 
                                  (PM) 

e|---------------------------------| 
B|---------------------------------| 
G|---------------------------------| 
D|-5-5-5-5-4-4-4-4-3-3-3-3-2-2-2-2-| 
A|-3-3-3-3-2-2-2-2-1-1-1-1-0-0-0-0-| 
E|---------------------------------| x2 
                                    (PM) 

e|------------------------------| 
B|------------------------------| 
G|------------------------------| 
D|---------3-----3------3-----5-| 
A|---------1-----1------1-(0)-3-| 
E|-3-3-3-3---3-3----3-3---------| x3 
                                  (PM) 

e|-------------------| 
B|-------------------| 
G|-5---3-------------| 
D|-5---3---5---3-5s8-| 
A|-3---1---5---3-5s8-| 
E|---------3---1-3s6-| 

Tacet until next chorus 

e|------------------------------| 
B|------------------------------| 
G|------------------------------| 
D|---------3-----3------3-----5-| 
A|---------1-----1------1-(0)-3-| 
E|-3-3-3-3---3-3----3-3---------| Repeat until end 
                                  (PM) 
 
share this page

See Also: