E-Chords
Diaconoguitar

Gta San Andreas Theme(Tabs)

Diaconoguitar

roll up this ad to continue

Key: A
Baixo 

G|---------------------------------------------------| 
D|---5------------------6-5---------------6-5--------| 
A|-----5--------------------5-----------------5------| 
E|---------1-3--x-3---6-------1-3-x-3---6------------| 

Solo 

E|----3-----------------------------------------------------| 
B|------4-3h4h3-3-3----1---1-3---1--------------------------| 
G|--0----------------3---3-----0---3-0----------------------| 
D|----------------------------------------------------------| 
A|----------------------------------------------------------| 
E|----------------------------------------------------------| 
share this page

See Also: