E-Chords
Diaconoguitar

Beyond: Two Souls Theme(Tabs)

Diaconoguitar

roll up this ad to continue

Key: Em
  Em                                     C        Em 
E|---------3------3-5--8-7---7-5-7--7-10-3--------3---------- 
B|-----3-5---5------------------------------5-4-5---5-------- 
G|---4------------------------------------------------------- 
D|----------------------------------------------------------- 
A|----------------------------------------------------------- 
E|----------------------------------------------------------- 

    Em       C          Em       C   D   Em 
E|---------3-5--5-3-5--8-7--7-10-3-2-3-5-0----------------------------- 
B|-----3-5------------------------------------------------------------- 
G|---4----------------------------------------------------------------- 
D|--------------------------------------------------------------------- 
A|--------------------------------------------------------------------- 
E|--------------------------------------------------------------------- 

Com Em Pestanado 

E|--------------------------------------------------------------------- 
B|----------8-------8----------------------8-------8------------------- 
G|------9-------9-------9---7----------9-------9-------9---7----------- 
D|----9---9---9---9---9---9-----10---9---9---9---9---9---9-----10---9-- 
A|--7-------------------------7----7-------------------------7----7---- 
E|--------------------------------------------------------------------- 

   Em               G                   C                Am         D 
E|-8-7----8-7-------8-7----------------8-7-----5-7------8-7-------5---- 
B|----7-8-----10-8------7-8--8-10-8-7------7-8-----8-7------7-8-8---8-7 
G|--------------------------------------------------------------------- 
D|--------------------------------------------------------------------- 
A|--------------------------------------------------------------------- 
E|--------------------------------------------------------------------- 

    C                Am          D         Em 
E|-8-7-------5------8-7-------5---------------------------------------- 
B|-----7-8-8---8-7------7-8-8---8-7------------------------------------ 
G|--------------------------------------------------------------------- 
D|--------------------------------------------------------------------- 
A|--------------------------------------------------------------------- 
E|--------------------------------------------------------------------- 
share this page

See Also: