E-Chords
Design The Skyline

Break Free From Your Life(Tabs)

Design The Skyline

Opens with this chord(i think)(find strumming) 
D|-----| 
A|-----| 
F|-9---| 
C|-7---| 
G|-9---| 
C|-----| 

Intro x2: 
Guitar 1 

D|-------------------------| 
A|-------------------------| 
F|-14-14-13-13-9-9-11-11---| 
C|-X--X--X--X--X-X-X--X----| 
G|-12-12-11-11-7-7-9--9----| 
C|-------------------------| 

D|----------------------------| 
A|----------------------------| 
F|-14-14-13-13-18-18-16-16----| 
C|-X--X--X--X--X--X--X--X-----| 
G|-12-12-11-11-16-16-14-14----| 
C|----------------------------| 

D|-------------------------| 
A|-------------------------| 
F|-14-14-13-13-9-9-11-11---| 
C|-X--X--X--X--X-X-X--X----| 
G|-12-12-11-11-7-7-9--9----| 
C|-------------------------| 

D|---------------------------| 
A|---------------------------| 
F|-13-13-13-13-14-14-14-14---| 
C|-X--X--X--X--X--X--X--X----| 
G|-11-11-11-11-12-12-12-12---| 
C|---------------------------| 

Guitar 2 

D|-------------------------------------------------------------------| 
A|-------------------------------------------------------------------| 
F|-------------------------------------------------------------------| 
C|-------------------------------------------------------------------| 
G|-0-0-0-0-0-0-0-0-4-4-4-4-4-4-4-4-2-2-2-2-2-2-2-2-2-2-2-2-2-2-2-2---| 
C|-0-0-0-0-0-0-0-0-4-4-4-4-4-4-4-4-2-2-2-2-2-2-2-2-2-2-2-2-2-2-2-2---| 


Verse x2: 
Guitar 1 

D|-----------------------------| 
A|-----------------------------| 
F|-9------------9--------------| 
C|---7-----------------7-------| 
G|------9999999---9999---9999--| 
C|-----------------------------| 

D|-----------------------------| 
A|-----------------------------| 
F|-6------------9--------------| 
C|---7-----------------7-------| 
G|------9999999---9999---9999--| 
C|-----------------------------| 

D|-----------------------------| 
A|-----------------------------| 
F|-4------------9--------------| 
C|---7-----------------7-------| 
G|------9999999---9999---9999--| 
C|-----------------------------| 

End with this chord 

D|--------| 
A|--------| 
F|-9~~~---| 
C|-7~~~---| 
G|-9~~~---| 
C|--------| 

Guitar 2(find rhythm) 

D|---------------------------------------------------| 
A|---------------------------------------------------| 
F|---------------------------------------------------| 
C|---------------------------------------------------| 
G|-0~~~00000-00000-4~~~44444-44444-2~~~22222-22222---| 
C|-0~~~00000-00000-4~~~44444-44444-2~~~22222-22222---| 

End with 

D|--------| 
A|--------| 
F|--------| 
C|--------| 
G|-0~~~---| 
C|-0~~~---| 

Chorus(find strumming)x2: 
Both guitars 

D|-------------------------------------------------| 
A|-------------------------------------------------| 
F|-------------------------------------------------| 
C|-------------------------------------------------| 
G|-0-0-0-0-4-4-4-4-2-2-2-2-0-0-0-0-4-4-4-4-2-2-2-2-| 
C|-0-0-0-0-4-4-4-4-2-2-2-2-0-0-0-0-4-4-4-4-2-2-2-2-| 

Play verse and chorus again then 

Interlude: 

D|-------------------------------------------------------------------| 
A|-------------------------------------------------------------------| 
F|-------------------------------------------------------------------| 
C|-6-6-6-6-7-7-7-7-6-6-6-6-7-7-7-7-4-4-4-4-4-4-4-4-2-2-2-2-2-2-2-2---| 
G|-------------------------------------------------------------------| 
C|-------------------------------------------------------------------| 

D|------------------------------------------------------------------| 
A|------------------------------------------------------------------| 
F|--------9-9-9-9---------6-6-6-6---------6-6-6-6---------9-9-9-9---| 
C|6-6-6-6---------6-6-6-6---------7-7-7-7---------7-7-7-7-----------| 
G|------------------------------------------------------------------| 
C|------------------------------------------------------------------| 

Breakdown(find strumming): 
Guitar 1 

D|-----| 
A|-----| 
F|-9---| 
C|-7---| 
G|-9---| 
C|-----| 

D|-----| 
A|-----| 
F|-6---| 
C|-7---| 
G|-9---| 
C|-----| 

Guitar 2 

D|---------------------------------------------------| 
A|---------------------------------------------------| 
F|---------------------------------------------------| 
C|---------------------------------------------------| 
G|-00000-00000-44444-44444-22222-22222-22222-22222---| 
C|-00000-00000-44444-44444-22222-22222-22222-22222---|  

roll up this ad to continue

share this page

See Also: