E-Chords
Demons & Wizards

Terror Train(Tabs)

Demons & Wizards

roll up this ad to continue

Key: Eb
   
Tuning: Eb 
 
 
Riff 1 
eb|--------------------------------------| 
Bb|--------------------------------------| 
Gb|--------------------------------------| 
Db|--------------------3------0----3-3-2-| 
Ab|------2------2------3-0000-0-00-3-3-2-| 
Eb|-0000-0-0000-0-0000-------------------| 
    ****   ****   ****   ****   ** 
eb|------------------------------------| 
Bb|------------------------------------| 
Gb|------------------------------------| 
Db|------3------3----3-------3-------5-| 
Ab|-1111-1-1111-1-11-1-------3-------5-| 
Eb|---------------------1111----3333---| 
    ****   ****   **    ****    **** 
 
 
Riff 2 
Guitar 1 
eb|-----------------------------------------| 
Bb|-----------------------------------------| 
Gb|-----------------------------------------| 
Db|-----------------------------------------| 
Ab|------2222------3333------2222------3333-| 
Eb|-0000------0000------0000------0000------| 
    **** **** **** **** **** **** **** **** 
eb|-----------------------------------------| 
Bb|-----------------------------------------| 
Gb|-----------------------------------------| 
Db|-----------------------------------------| 
Ab|------3333------4444------3333------4444-| 
Eb|-1111------1111------1111------1111------| 
    **** **** **** **** **** **** **** **** 
 
Guitar 2                            x2 
eb|----------------------------------| 
Bb|----------------------------------| 
Gb|---------16161616--------17171717-| 
Db|-14141414--------14141414---------| 
Ab|----------------------------------| 
Eb|----------------------------------| 
                                    x2 
eb|----------------------------------| 
Bb|----------------------------------| 
Gb|---------17171717--------18181818-| 
Db|-15151515--------15151515---------| 
Ab|----------------------------------| 
Eb|----------------------------------| 
 
 
Play Riff 1 
Play Riff 2   '...me...' 
 
 
Riff 3 
eb|------------------------------------------------| 
Bb|------------------------------------------------| 
Gb|------------------------------------------------| 
Db|-----9999-7777--------10101010-9999--------7777-| 
Ab|-7777---------10101010-------------10101010-----| 
Eb|------------------------------------------------| 
    ******** **** * * * * * * * * **** * * * ***** 
   'No one really knows...' 
eb|--------------------------------------| 
Bb|--------------------------------------| 
Gb|--------------------------------8--8--| 
Db|-----9999-7777------------------8--8--| 
Ab|-7777---------10101010-55555555-------| 
Eb|--------------------------------------| 
    ******** **** * * * * ******** 
   '...going through...' 
 
 
Riff 4 
eb|---------------------------------------------------| 
Bb|---------------------------------------------------| 
Gb|---------------------------------------------------| 
Db|---------------------------------------------------| 
Ab|-7777777777777777-10101010101010101010101010101010-| 
Eb|---------------------------------------------------| 
    ****************  * * * * * * * * * * * * * * * * 
eb|-----------------------------------| 
Bb|-----------------------------------| 
Gb|-----------------------------------| 
Db|-----------------------------------| 
Ab|-9999999999999999-5555555555555555-| 
Eb|-----------------------------------| 
    **************** **************** 
eb|---------------------------------------------------| 
Bb|---------------------------------------------------| 
Gb|---------------------------------------------------| 
Db|---------------------------------------------------| 
Ab|-7777777777777777-10101010101010101010101010101010-| 
Eb|---------------------------------------------------| 
    ****************  * * * * * * * * * * * * * * * * 
eb|---------------------------------------------------| 
Bb|---------------------------------------------------| 
Gb|---------------------------------------------------| 
Db|---------------------------------------------------| 
Ab|-12121212121212121212121212121212-5555555555555555-| 
Eb|---------------------------------------------------| 
     * * * * * * * * * * * * * * * * **************** 
 
 
 
Riff 5 
Both guitars 
eb|---------------------------------------------------| 
Bb|---------------------------------------------------| 
Gb|---------------------------------------------------| 
Db|---------------------------------------------------| 
Ab|-7777-88-77-1010-77-88-77-7777-88-77-1010-77-88-77-| 
Eb|---------------------------------------------------| 
    **** ** **  * * ** ** ** **** ** **  * * ** ** ** 
eb|-----------------------------------------------| 
Bb|-----------------------------------------------| 
Gb|-----------------------------------------------| 
Db|-----------------------------------------------| 
Ab|-6666-77-66-99-66-77-66-6666-77-66-99-66-77-66-| 
Eb|-----------------------------------------------| 
    **** ** ** ** ** ** ** **** ** ** ** ** ** ** 
eb|-----------------------------------------------| 
Bb|-----------------------------------------------| 
Gb|-----------------------------------------------| 
Db|-----------------------------------------------| 
Ab|-77777777-1010-77-88-77-77777777-1010-77-88-77-| 
Eb|-----------------------------------------------| 
    ********  * * ** ** ** ********  * * ** ** ** 
 
Ending: 
Guitar 1 
eb|---------------------------------------| 
Bb|---------------------------------------| 
Gb|---------------------------------------| 
Db|---------------------------------------| 
Ab|-66666666-99-66-77-66-6666666666666666-| 
Eb|---------------------------------------| 
    ******** ** ** ** ** **************** 
 
Guitar 2 
eb|----------------------------| 
Bb|----------------------------| 
Gb|----------------------------| 
Db|----------------------------| 
Ab|-66666666-/18\--------------| 
Eb|---------------{long slide}-| 
    ******** 
 
 
Play Riff 1    'I am nothing...' 
Play Riff 2    '...me...' 
Play Riff 3    'No one really...' 
Play Riff 4 
Play Riff 5 
 
 
 
Riff 6 
Guitar 1 
eb|-----------------------------------| 
Bb|-----------------------------------| 
Gb|-----------------------------------| 
Db|-----------------------------------| 
Ab|-----------------------------------| 
Eb|-0------------------(0)------/17\--| 
 
Keep playing this until final time: 
eb|-----------------------------------| 
Bb|-----------------------------------| 
Gb|-----------------------------------| 
Db|-----------------------------------| 
Ab|-----------------------------------| 
Eb|-0-00-0-0-0-0-0-0-0-00-0-0-0-0-0-0-| 
    * ** * * * * * * * ** * * * * * * 
Final time: 
eb|-----------------------------------| 
Bb|-----------------------------------| 
Gb|-----------------------------------| 
Db|-----------------------------------| 
Ab|-----------------------------------| 
Eb|-0-00-0-0-0-0-0-0-0-00-0-0--/17\---| 
    * ** * * * * * * * ** * * 
 
Guitar 2 
eb|----------------------------------------| 
Bb|----------------------------------------| 
Gb|-9h10p9----9-------9h10p9----9----------| 
Db|--------12---12-----------12---12-10-9--| 
Ab|----------------------------------------| 
Eb|----------------------------------------| 
 
eb|---------------------------------| 
Bb|---------------------------------| 
Gb|---------------------------------| 
Db|-7-9-10-9-7--9-------------------| 
Ab|------------------7-9-10-9-7--7--| 
Eb|---------------------------------| 
 
Guitar 3 (Comes in the 3rd and 4th time) 
eb|-12h13p12-------------12h13p12----------------| 
Bb|----------15-13-12-------------15-13-12-------| 
Gb|----------------------------------------14-12-| 
Db|----------------------------------------------| 
Ab|----------------------------------------------| 
Eb|----------------------------------------------| 
 
eb|------------------------------------------| 
Bb|-----------------------12-13-15-13-12--12-| 
Gb|-11-12-14-12-11--12-----------------------| 
Db|------------------------------------------| 
Ab|------------------------------------------| 
Eb|------------------------------------------| 
 
Guitar 4 (Comes in the 3rd and 4th time) 
NOTE: Listen for timing, it follows the other 
guitars slightly. 
eb|---------------------------------------------| 
Bb|---------------------------------------------| 
Gb|---------------------------------------------| 
Db|---------------------------------------------| 
Ab|---------7h8p7----7-------7h8p7----7---------| 
Eb|---------------10---10----------10---10-8-7--| 
 
eb|--------------------------------------| 
Bb|--------------------------------------| 
Gb|--------------------------------------| 
Db|--------------------------------------| 
Ab|--------------------------------------| 
Eb|---------5-7-8-7-5--7----0-2-3-2-0--0-| 
 
 
 
Play Riff 1 
Play Riff 3  'No one really...' 
Play Riff 4 
Play Riff 2  'Beneath the demon moon...' 
 
 
 
Notation: 
 
10^        = bend a quarter step. 
10b11      = bend a half step. 
10b12      = bend a full step. 
10b12r10   = bend and release. 
{10}12     = pre-bend. 
{10}12r10  = pre-bend and release. 
{14}       = pick the 14th fret while holding the most  
             previous bend. 
<17>       = touch the string above the 17th fret while  
             previous note(s) is(are) still ringing. 
 
10b13*     = tremolo bar bend, from the 10th fret to the 13th fret. 
7d4*       = tremolo bar dive, from the 7th fret to the 4th fret.  
12~*       = tremolo bar vibrato. 
 
x   =  mute with fret-hand 
*   =  palm mute 
X\\ =  pick slide 
h   =  hammer-on 
p   =  pull-off 
~   =  vibrato 
t   =  finger tap 
/   =  slide up 
\   =  slide down 
h.  =  natural harmonics 
a   =  artificial harmonics 
(9) =  ghost note 
tm  =  trem picking 
tr  =  trill
 
transcribed by: Russ Elton ([email protected]) 
 
FIND EVERY ICED EARTH SONG AND 
THE MOST UPDATED VERSION OF THIS SONG AT: 
 
                        The Frozen Palace 
                  http://abysslord.com/icedearth/ 
 
Date last modified:  May 09, 2005 
share this page

See Also: