E-Chords
Death Of An Era

False Idols(Tabs)

Death Of An Era

Key: A
* - Harmonic 
()- tremalo 
/ - slide 
. - palm mute 

----------------------------------------------------------------- 
----------------------------------------------17----------------- 
-------------------------17-16-------16-17-19-------------------- 
----------14-10-------14-------17/19----------------------------- 
-------12-------12/15----------------------------7--------------- 
-12-13---------------------------------------------8----8-------- 
-----------------------------------------------------10---10-7-0- 

--------------------------------------------------------------------------------- 
-------------------------------------------------------------------------------17 
----------------------------------------------------------17-16-------16-17-19--- 
-------------------------------------------14-10-------14-------17/19------------ 
----------------------------------------12-------12/15--------------------------- 
-----(4)---------------------(10)-12-13------------------------------------------ 
-(1)-----(1)-(0)-(1)-(7)-(8)----------------------------------------------------- 

----------------------------- 
----------------------------- 
----------------------------- 
----------------------------- 
-7-----------------------7--- 
---8----8--------------8---8- 
-----10---10-7-0--7-10------- 

---------------------------------------------------------- 
----------------------------------------------17---------- 
-------------------------17-16-------16-17-19------------- 
----------14-10-------14-------17/19---------------------- 
-------12-------12/15---------------------------------7--- 
-12-13----------------------------------------------8---8- 
-------------------------------------------------10------- 

------------------------------------------------------------------------------------- 
------------------------------------------------------------------------------------- 
------------------------------------------------------------------------------------- 
-------------------------------15-------18------------------------------------------- 
-------------12-------12----------12-13----15---------------------------------------- 
-------12-13----13-12----13-12----------------16-------12-13---10/13---5-6-----1----- 
-12-15-------------------------------------------12-15-------7-------0-----8-0---4-1- 

------------------------------------------------------------------------------------- 
------------------------------------------------------------------------------------- 
------------------------------------------------------------------------------------- 
-------------------------------15-------18------------------------------------------- 
-------------12-------12----------12-13----15---------------------------------------- 
-------12-13----13-12----13-12----------------16-------12-13---10/13---5-6-----1----- 
-12-15-------------------------------------------12-15-------7-------0-----8-0---4-1- 

----------------------------------------------------------------------------------------------------- 
----------------------------------------------------------------------------------------------------- 
----------------------------------------------------------------------------------------------------- 
-15-------15-------15----15-------15-------15----15-------15-------15----15-------15-------15----15/- 
----12-13----12-13----13----12-13----12-13----13----12-13----12-13----13----12-13----12-13----13----- 
----------------------------------------------------------------------------------------------------- 
----------------------------------------------------------------------------------------------------- 
  Lead and Rythm Guitar 
-------------------------------------------------- 
-------------------------------------------------- 
-------------------------------------------------- 
-------------------------------------------------- 
-------------------------------------------------- 
-000-000---000-0-0-0-0-000-0-000-000--000-0-0-0-0- 
-000-000---000-0-0-0-0-000-0-000-000--000-0-0-0-0- 
PM... ...   ... . . . . ... . ... ...  ... . . . . 

-------------------------------------------------------------------------- 
-------------------------------------------------------------------------- 
-------------------------------------------------------------------------- 
-10-----11-----11-----11-----11-----10-----11-----11-----11-----11-----10- 
----7-8----7-8----7-8----7-8----7-8----7-8----7-8----7-8----7-8----7-8---- 
-------------------------------------------------------------------------- 
-------------------------------------------------------------------------- 
  Lead and Rythm Guitar 
------------------------------------- 
------------------------------------- 
------------------------------------- 
------------------------------------- 
------------------------------------- 
-000-000---000-0-0-0-0-000-0-000-000- 
-000-000---000-0-0-0-0-000-0-000-000- 
PM... ...   ... . . . . ... . ... ...  

----------------------------------------------------------------------------------------------------- 
----------------------------------------------------------------------------------------------------- 
----------------------------------------------------------------------------------------------------- 
-15-------15-------15----15-------15-------15----15-------15-------15----15-------15-------15----15/- 
----12-13----12-13----13----12-13----12-13----13----12-13----12-13----13----12-13----12-13----13----- 
----------------------------------------------------------------------------------------------------- 
----------------------------------------------------------------------------------------------------- 
  Lead and Rythm Guitar 
------------------------------------------------------ 
------------------------------------------------------ 
------------------------------------------------------ 
------------------------------------------------------ 
------------------------------------------------------ 
-000-000-000---000-0-0-0-0-000-0-000-000--000-0-0-0-0- 
-000-000-000---000-0-0-0-0-000-0-000-000--000-0-0-0-0- 
PM... ... ...   ... . . . . ... . ... ...  ... . . . . 

-------------------------------------------------------------------------- 
-------------------------------------------------------------------------- 
-------------------------------------------------------------------------- 
-10-----11-----11-----11-----11-----10-----11-----11-----11-----11-----10- 
----7-8----7-8----7-8----7-8----7-8----7-8----7-8----7-8----7-8----7-8---- 
-------------------------------------------------------------------------- 
-------------------------------------------------------------------------- 
  Lead and Rythm Guitar 
------------------------------------- 
------------------------------------- 
------------------------------------- 
------------------------------------- 
------------------------------------- 
-000-000---000-0-0-0-0-000-0-000-000- 
-000-000---000-0-0-0-0-000-0-000-000- 
PM... ...   ... . . . . ... . ... ...   

------- 
------- 
------- 
------- 
------- 
-00-00- 
-00-00- 

----------------------------------------------------------------------------------------------------- 
----------------------------------------------------------------------------------------------------- 
----------------------------------------------------------------------------------------------------- 
-------------------------------------8--------------------------------------------------------------- 
---------------------------------------4------------------------9-11-9------------------------------- 
-000-000---000-0-0-0-0-000-0-000-000-----6-5-1-------000-000-12--------12*-000-0-0-0-0-000-0-000-000- 
-000-000---000-0-0-0-0-000-0-000-000-----------4-1-0-000-000---------------000-0-0-0-0-000-0-000-000- 
PM... ...   ... . . . . ... . ... ...                 ... ...               ... . . . . ... . ... ... 

--------------------------------------------------------------------------------------------------------- 
--------------------------------------------------------------------------------------------------------- 
--------------------------------------------------------------------------------------------------------- 
-----------------------------------------8--------------------------------------------------------------- 
-------------------------------------------4------------------------9-11-9------------------------------- 
-000-000-000---000-0-0-0-0-000-0-000-000-----6-5-1-------000-000-12--------12*-000-0-0-0-0-000-0-000-000- 
-000-000-000---000-0-0-0-0-000-0-000-000-----------4-1-0-000-000---------------000-0-0-0-0-000-0-000-000- 
PM... ... ...   ... . . . . ... . ... ...                 ... ...               ... . . . . ... . ... ... 

------- 
------- 
------- 
------- 
------- 
-00-00- 
-00-00- 

------------------------------------------------------------------------- 
------------------------------------------------------------------------- 
------------------------------------------------------------------------- 
------------------------------------------------------------------------- 
------------------------------------------------------------------------- 
------------------------------1------------------------------------4---4- 
-0-00-000-0-0-0-0-000-0-00-00---4-1-0-00-000-0-0-0-0-000-0-00-00-1---1--- 

---------------------------------------------------------------------------------------------- 
---------------------------------------------------------------------------------------------- 
-----------------------------------------3*--------------------------------------------------- 
--------------------------------------3*--------------------------------------8--------------- 
-----------------------------------3*-------------------------------------------4------------- 
--------------------------------3*------------------------------------------------6-5-1------- 
-0-00-000-0-1^-1^-0-000-0-00-00-------------0-00-000-0-0-0-0-000-0-00--0-0--0-----------4-1-0- 

----------------------------------------------------------------------------- 
----------------------------------------------------------------------------- 
----------------------------------------------------------------------------- 
----------------------------------------------------------------------------- 
----------------------------------------------------------------------------- 
-000-000-----000---000-0-0-0-0------000-000-----------------000-000--000-0-0- 
-000-000-----000---000-0-0-0-0------000-000-----------------000-000--000-0-0- 
PM... ...     ...   ... . . . .      ... ...                 ... ...  ... . . 
  Lead and Rythm Guitar 
----------------------------------------------------------------------------- 
----------------------------------------------------------------------------- 
----------------------------------------------------------------------------- 
----------------------------------------------------------------------------- 
----------------------------------------------------------------------------- 
-000-000-----000---000-0-0-0-0------000-000---000-0-0-0-0---000-000--000-0-0- 
-000-000-----000---000-0-0-0-0------000-000---000-0-0-0-0---000-000--000-0-0- 
PM... ...     ...   ... . . . .      ... ...   ... . . . .   ... ...  ... . . 

=---------------------------------------------------------------------------------------------------------- 
=---------------------------------------------------------------------------------------------------------- 
=---------------------------------------------------------------------------------------------------------- 
=---------------------------------------------------------------------------------------------------------- 
=---------------------------------------------------------------------------------------------------------- 
=000-000-/5-----4----/5-------4---4---000--000-0-0-0-0---000-000-/5-----4-----------------000-000--000-0-0- 
=000-000----2-1---1-----2-1-1---1---1-000--000-0-0-0-0---000-000----2-1---1---------------000-000--000-0-0- 
PM... ...                              ...  ... . . . .   ... ...                          ... ...  ... . . 
  Lead and Rythm Guitar 
----------------------------------------------------------------------------------------------------------- 
----------------------------------------------------------------------------------------------------------- 
----------------------------------------------------------------------------------------------------------- 
----------------------------------------------------------------------------------------------------------- 
----------------------------------------------------------------------------------------------------------- 
-000-000------------------------------000--000-0-0-0-0---000-000-------------000-0-0-0-0--000-000--000-0-0- 
-000-000------------------------------000--000-0-0-0-0---000-000-------------000-0-0-0-0--000-000--000-0-0- 

--------------------------------------------------------------------------- 
--------------------------------------------------------------------------- 
--------------------------------------------------------------------------- 
--------------------------------------------------------------------------- 
--------------------------------------------------------------------------- 
-/5-----4---4-----/5-------/5-----4---/5-----4---4-----/5-------/5-----4--- 
----2-1---1---1-0----2-1-0----2-1---1----2-1---1---1-0----2-1-0----2-1---1- 

---------------------------------------------------------------------------------- 
---------------------------------------------------------------------------------- 
---------------------------------------------------------------------------------- 
---------------------------------------------------------------------------------- 
------------------4--------------------------------------------------------------- 
-000-00-0-0-0-0---------/5-------/5-----4---/5-----4---4-----/5-------/5-----3*--- 
-000-00-0-0-0-0-0---1-0----2-1-0----2-1---1----2-1---1---1-0----2-1-0----2-1----1- 
PM... .. . . . . . 

------------------------------------------------------------------------------------------- 
------------------------------------------------------------------------------------------- 
------------------------------------------------------------------------------------------- 
------------------------------------------------------------------------------------------- 
------------------------------------------------------------------------------------------- 
-000-000---000-0-0-0-0-000-0-000-000---0-0-/5---000-000---000-0-0-0-0-000-0-000-000-/5----- 
-000-000---000-0-0-0-0-000-0-000-000---0-0----2-000-000---000-0-0-0-0-000-0-000-000----2-1- 
PM... ...   ... . . . . ... . ... ...   . .      ... ...   ... . . . . ... . ... ... 

--------------------------------------------------------------------------------------------------------- 
--------------------------------------------------------------------------------------------------------- 
--------------------------------------------------------------------------------------------------------- 
-----------------------------------------8--------------------------------------------------------------- 
-------------------------------------------4------------------------9-11-9------------------------------- 
-000-000-000---000-0-0-0-0-000-0-000-000-----6-5-1-------000-000-12--------12*-000-0-0-0-0-000-0-000-000- 
-000-000-000---000-0-0-0-0-000-0-000-000-----------4-1-0-000-000---------------000-0-0-0-0-000-0-000-000- 
PM... ... ...   ... . . . . ... . ... ...                 ... ...               ... . . . . ... . ... ... 

------- 
------- 
------- 
------- 
------- 
------- 
-00-00- 

----------------------------------------------------------------------------------------------------- 
----------------------------------------------------------------------------------------------------- 
----------------------------------------------------------------------------------------------------- 
-15-------15-------15----15-------15-------15----15-------15-------15----15-------15-------15----15/- 
----12-13----12-13----13----12-13----12-13----13----12-13----12-13----13----12-13----12-13----13----- 
----------------------------------------------------------------------------------------------------- 
----------------------------------------------------------------------------------------------------- 
  Lead and Rythm Guitar 
-------------------------------------------------- 
-------------------------------------------------- 
-------------------------------------------------- 
-------------------------------------------------- 
-------------------------------------------------- 
-000-000---000-0-0-0-0-000-0-000-000--000-0-0-0-0- 
-000-000---000-0-0-0-0-000-0-000-000--000-0-0-0-0- 
PM... ...   ... . . . . ... . ... ...  ... . . . . 

-------------------------------------------------------------------------- 
-------------------------------------------------------------------------- 
-------------------------------------------------------------------------- 
-10-----11-----11-----11-----11-----10-----11-----11-----11-----11-----10- 
----7-8----7-8----7-8----7-8----7-8----7-8----7-8----7-8----7-8----7-8---- 
-------------------------------------------------------------------------- 
-------------------------------------------------------------------------- 
  Lead and Rythm Guitar 
------------------------------------- 
------------------------------------- 
------------------------------------- 
------------------------------------- 
------------------------------------- 
-000-000---000-0-0-0-0-000-0-000-000- 
-000-000---000-0-0-0-0-000-0-000-000- 
PM... ...   ... . . . . ... . ... ...  

----------------------------------------------------------------------------------------------------- 
----------------------------------------------------------------------------------------------------- 
----------------------------------------------------------------------------------------------------- 
-15-------15-------15----15-------15-------15----15-------15-------15----15-------15-------15----15/- 
----12-13----12-13----13----12-13----12-13----13----12-13----12-13----13----12-13----12-13----13----- 
----------------------------------------------------------------------------------------------------- 
----------------------------------------------------------------------------------------------------- 
  Lead and Rythm Guitar 
------------------------------------------------------ 
------------------------------------------------------ 
------------------------------------------------------ 
------------------------------------------------------ 
------------------------------------------------------ 
-000-000-000---000-0-0-0-0-000-0-000-000--000-0-0-0-0- 
-000-000-000---000-0-0-0-0-000-0-000-000--000-0-0-0-0- 
PM... ... ...   ... . . . . ... . ... ...  ... . . . . 

-------------------------------------------------------------------------- 
-------------------------------------------------------------------------- 
-------------------------------------------------------------------------- 
-10-----11-----11-----11-----11-----10-----11-----11-----11-----11-----10- 
----7-8----7-8----7-8----7-8----7-8----7-8----7-8----7-8----7-8----7-8---- 
-------------------------------------------------------------------------- 
-------------------------------------------------------------------------- 
  Lead and Rythm Guitar 
------------------------------------- 
------------------------------------- 
------------------------------------- 
------------------------------------- 
------------------------------------- 
-000-000---000-0-0-0-0-000-0-000-000- 
-000-000---000-0-0-0-0-000-0-000-000- 
PM... ...   ... . . . . ... . ... ...   

------------------------------------------------------------------------------------- 
------------------------------------------------------------------------------------- 
------------------------------------------------------------------------------------- 
-------------------------------15-------18------------------------------------------- 
-------------12-------12----------12-13----15---------------------------------------- 
-------12-13----13-12----13-12----------------16-------12-13---10/13---5-6-----1----- 
-12-15-------------------------------------------12-15-------7-------0-----8-0---4-1- 

------------------------------------------------------------------------------------- 
------------------------------------------------------------------------------------- 
------------------------------------------------------------------------------------- 
-------------------------------15-------18------------------------------------------- 
-------------12-------12----------12-13----15---------------------------------------- 
-------12-13----13-12----13-12----------------16-------12-13---10/13---5-6-----1----- 
-12-15-------------------------------------------12-15-------7-------0-----8-0---4-1- 

roll up this ad to continue

share this page

See Also: