E-Chords
Day Wave

Total Zombie(Tabs)

Day Wave

roll up this ad to continue

Intro 

e|--9-9-9-9-9-9-9-9-7-7-7-7-7-7-7-7| 
B|--9-9-9-9-9-9-9-9-9-9-9-9-9-9-9-9| 
G|---------------------------------| 
D|---------------------------------| 
A|---------------------------------| 
E|---------------------------------| 

the above riff is played for most of the song in the background! the following 
tabs are for the lead guitar, which comes in at 0:05 with... 

e|-----------------| 
B|-----------------| 
G|-----------------| 
D|---9--9--9--6-6--| 
A|-7--7--7--7----7-|  (x4) 
E|-----------------| 


Verse 

'Here I go, know I can't be around you anymore...' 
e|---------------------------------------------------------------------------| 
B|---------------------------------------------------------------------------| 
G|---------------------------------------------------------------------------| 
D|---------------------------------------------------------------------------| 
A|---------------------------------------------------------------------------| 
E|-5-5-5-5-5-5-5-5-5-5-5-5-2-2-2-2-0-0-0-0-0-0-0-0-0-0-0-0-0-0-0-0-----------| 

e|---------------------------------------------------------------------------| 
B|---------------------------------------------------------------------------| 
G|---------------------------------------------------------------------------| 
D|---------------------------------------------------------------------------| 
A|---------------------------------------------------------------------------| 
E|-5-5-5-5-5-5-5-5-5-5-5-5-2-2-2-2-0-0-0-0-0-0-0-0-0-0-0-0-0-0-0-0-----------| 


Pre-Chorus 

'Close your eyes and I'll close mine...' 
e|---------------------------------------------------------------------------| 
B|---------------------------------------------------------------------------| 
G|---------------------------------------------------------------------------| 
D|--------6-6-6-6--------6-6-6-6---------6-6-6-6--------9-9-9-9--------------| 
A|-7-7-9-9--------7-7-9-9--------7-7-9-9---------7-7-9-9---------------------| 
E|---------------------------------------------------------------------------| 

e|---------------------------------------------------------------------------| 
B|---------------------------------------------------------------------------| 
G|---------------------------------------------------------------------------| 
D|--------6-6-6-6--------6-6-6-6---------6-6-6-6--------9-9-9-9--------------| 
A|-7-7-9-9--------7-7-9-9--------7-7-9-9---------7-7-9-9---------------------| 
E|---------------------------------------------------------------------------| 

'Close your eyes and I'll close mine...' (this is the falsetto one) 
e|---------------------------------------------------------------------------| 
B|---------------------------------------------------------------------------| 
G|---------------------------------------------------------------------------| 
D|---------------------------------------------------------------------------| -> continued 
A|-6-6-6-6-6-6-6-6-7-7-7-7-7-7-7-7-4-4-4-4-4-4-4-4-2-2-2-2-2-2-2-2-----------| 
E|---------------------------------------------------------------------------| 

e|---------------------------------------------------------------------------| 
B|---------------------------------------------------------------------------| 
G|---------------------------------------------------------------------------| 
D|---------------------------------------------------------------------------| 
A|---------------------------------------------------------------------------| 
E|-4-4-4-4-4-4-4-4-5-5-5-5-5-5-5-5-2-2-2-2-2-2-2-2-0-0-0-0-0-0-0-0-----------| 


Chorus 

so, from watching videos and listening, it sounds like jackson has two distinct guitar parts going on 
simultaneously. the first one is: 
e|---------------------------------------------------------------------------| 
B|------7---7---7---...------------------------------------------------------| 
G|----9--9-9-9-9-9--...------------------------------------------------------| 
D|--------9---9---9-...------------------------------------------------------| 
A|---------------------------------------------------------------------------| 
E|---------------------------------------------------------------------------| 

basically, he's arpeggiating an E major chord (as shown above). the rhythm is a bit weird, listen 
really closely if you really wanna get it down. the second guitar does this: 

e|---------------------------------------------------------------------------| 
B|---------------------------------------------------------------------------| 
G|-----4-4-1-1-1-1-----4-4-1-1-1-1-----4-4-1-1-1-1--...----------------------| 
D|-2-2-------------2-2-------------2-2--------------...----------------------| 
A|---------------------------------------------------------------------------| 
E|---------------------------------------------------------------------------| 

those two guitar tracks run at the same time throughout the entire Chorus. 


Bridge 

e|---------------------------------------------------------------------------| 
B|------7---7---7---...------------------------------------------------------| 
G|----9--9-9-9-9-9--...------------------------------------------------------| 
D|--------9---9---9-...------------------------------------------------------| 
A|---------------------------------------------------------------------------| 
E|---------------------------------------------------------------------------| 

this starts at 2:40 and runs by itself with no other guitar it's the same 
riff as the Chorus. the second half of the bridge starts at 3:06, 
with this: 
e|---------------------------------------------------------------------------| 
B|---------------------------------------------------------------------------| 
G|---------------------------------------------------------------------------| 
D|---------------------------------------------------------------------------| -> continued 
A|-6-6-6-6-6-6-6-6-7-7-7-7-7-7-7-7-4-4-4-4-4-4-4-4-2-2-2-2-2-2-2-2-----------| 
E|---------------------------------------------------------------------------| 

e|---------------------------------------------------------------------------| 
B|---------------------------------------------------------------------------| 
G|---------------------------------------------------------------------------| 
D|---------------------------------------------------------------------------| 
A|---------------------------------------------------------------------------| 
E|-4-4-4-4-4-4-4-4-5-5-5-5-5-5-5-5-2-2-2-2-2-2-2-2-0-0-0-0-0-0-0-0-----------| 


Outro 

just an extended Chorus :-) 
share this page

See Also: