E-Chords
David Lee Roth

Blacklight(Tabs)

David Lee Roth

roll up this ad to continue

Intro 

e|--------------------------------------------------------------| 
B|--------------------------------------------------------------| 
G|--------------------------------------------------------------| 
D|--------2-0-----------2-0-----2----2----2---------------------| 
A|------------2-------------2------------------2-5-2-5-2-6/7----| 
E|-0--0---------0---0---------0---3----4----5-------------------|         

e|--------------------------------------------------------------| 
B|--------------------------------------------------------------| 
G|--------------------------------------------------------------| 
D|--------2-0-----------2-0-------------------------------------| 
A|------------2-------------2---------------------0-5-0-5-0-----| 
E|-0--0---------0---0---------0-3-3-3-4-4-4-5-5-5-----------7\--|        


Verse 

e|--------------------------------------------------------------| 
B|--------------------------------------------------------------| 
G|--------------------------------------------------------------| 
D|------------------------------2----2----2---------------------| 
A|-2--2-----------------------------------------2-5-2-5-2-6/7---| 
E|-0--0---------------------------3----4----5-------------------| 

e|--------------------------------------------------------------| 
B|--------------------------------------------------------------| 
G|--------------------------------------------------------------| 
D|--------------------------------------------------------------| 
A|-2--2-------------------------------------------0-5-0-5-0-----| 
E|-0--0-------------------------3-3-3-4-4-4-5-5-5-----------7\--| 


Pre-Chorus 

e|------------------------------------------------------------------| 
B|-4\3/4\3/4---4\3/4\3/4--4/5-----4\3/4\3/4--4\3/4\3/4---2--3-------| 
G|-4\3/4\3/4---4\3/4\3/4--4/5-----4\3/4\3/4--4\3/4\3/4---2--3-------| 
D|-4\3/4\3/4---4\3/4\3/4--4/5-----4\3/4\3/4--4\3/4\3/4---2--3-------| 
A|------------------------------------------------------------------| 
E|------------------------------------------------------------------| 

e|---------------------------------------------------| 
B|-4\3/4\3/4---4\3/4\3/4--4/5------------------------| 
G|-4\3/4\3/4---4\3/4\3/4--4/5------------------------| 
D|-4\3/4\3/4---4\3/4\3/4--4/5-----------------1-2----| 
A|--------------------------------2--3--4--5---------| 
E|---------------------------------------------------| 


Chorus 

e|------------------------------------------------------| 
B|------------------------------------------------------| 
G|------------------------------------------------------| 
D|-2--2---2p0-----2--2----2p0-----7------5--------------| 
A|-2--2-------2---2--2--------2---7------5--------------| 
E|-0--0--0-----0--0--0--0-------0-5------3--------------| 


Instrumental 

e|--------------------------------------------------------------| 
B|--------------------------------------------------------------| 
G|--------------------------------------------------------------| 
D|--------2-0-----------2-0-----2----2----2---------------------| 
A|------------2-------------2------------------2-5-2-5-2-6/7----| 
E|-0--0---------0---0---------0---3----4----5-------------------|      

e|--------------------------------------------------------------| 
B|--------------------------------------------------------------| 
G|--------------------------------------------------------------| 
D|--------2-0-----------2-0-------------------------------------| 
A|------------2-------------2---------------------0-5-0-5-0-----| 
E|-0--0---------0---0---------0-3-3-3-4-4-4-5-5-5-----------7\--| 
         

Verse 

e|--------------------------------------------------------------| 
B|--------------------------------------------------------------| 
G|--------------------------------------------------------------| 
D|------------------------------2----2----2---------------------| 
A|-2--2-----------------------------------------2-5-2-5-2-6/7---| 
E|-0--0---------------------------3----4----5-------------------| 

e|--------------------------------------------------------------| 
B|--------------------------------------------------------------| 
G|--------------------------------------------------------------| 
D|--------------------------------------------------------------| 
A|-2--2-------------------------------------------0-5-0-5-0-----| 
E|-0--0-------------------------3-3-3-4-4-4-5-5-5-----------7\--| 


PreChorus 

e|------------------------------------------------------------------| 
B|-4\3/4\3/4---4\3/4\3/4--4/5-----4\3/4\3/4--4\3/4\3/4---2--3-------| 
G|-4\3/4\3/4---4\3/4\3/4--4/5-----4\3/4\3/4--4\3/4\3/4---2--3-------| 
D|-4\3/4\3/4---4\3/4\3/4--4/5-----4\3/4\3/4--4\3/4\3/4---2--3-------| 
A|------------------------------------------------------------------| 
E|------------------------------------------------------------------| 

e|---------------------------------------------------| 
B|-4\3/4\3/4---4\3/4\3/4--4/5------------------------| 
G|-4\3/4\3/4---4\3/4\3/4--4/5------------------------| 
D|-4\3/4\3/4---4\3/4\3/4--4/5-----------------1-2----| 
A|--------------------------------2--3--4--5---------| 
E|---------------------------------------------------| 


Chorus 

e|------------------------------------------------------| 
B|------------------------------------------------------| 
G|------------------------------------------------------| 
D|-2--2---2p0-----2--2----2p0-----7------5--------------| 
A|-2--2-------2---2--2--------2---7------5--------------| 
E|-0--0--0-----0--0--0--0-------0-5------3--------------| 


Bridge 

Use a killswitch effect to make this part sound as it sounds. 
You might need to use pull offs and hammer ons, if you have a killswith on your guitar 
and not as a pedal. I'm sure you know what to do here when you've got a killswitch :) 

e|-------------------------------| 
B|-2-0-2-0-2-5-2-0-2-0-0-0-0-----| 
G|-2-0-2-0-2-5-2-0-2-0-0-0-0-----| 
D|-------------------------------| 
A|-------------------------------| 
E|-------------------------------| 

The squeaking sound is produced by sliding with the finger back and forth  
on the low e string,  


Outro  

e|-------------------------|------------------------------| 
B|-------------------------|------------------------------| 
G|-12b14--9----------------|--12b14-9------12b14--14br12--| 
D|-----------9-------------|-----------11-----------------| 
A|--------------12--10~----|------------------------------| 
E|-------------------------|------------------------------| 


************************************ 
| h   Hammer-on 
| p   Pull-off 
| r   Release 
| b   Bend 
| br  Bend release 
| /   Slide up 
| \   Slide down 
| ~   Vibrato 
************************************ 
share this page

See Also: