E-Chords
Dave Grohl

Petrol Cb(Tabs)

Dave Grohl

Key: E
Tuning: E A D G B eb 

Intro + Verse: 
eb|-----------|--------------------------------------------------------------| 
B|------------|--------------------------------------------------------------| 
G|------------|--------------------------------------------------------------| 
D|--3-3--3-3--|--3-3--10~10~10~-4~4~-3-3-10~10~10~---------------------------| 
A|--3-3--3-3--|--3-3-----------------3-3-------------------------------------| 
E|--1-1--1-1--|--1-1-----------------1-1-------------------------------------| 

Chorus + Bridge: 
eb|-------------------|------------------------------------------------------| 
B|--------------------|------------------------------------------------------| 
G|--------------------|------------------------------------------------------| 
D|--3-3-3-3--5-5-5-5--|--4-4-4-4--6-6-6-6------------------------------------| 
A|--3-3-3-3--5-5-5-5--|--4-4-4-4--6-6-6-6------------------------------------| 
E|--1-1-1-1--3-3-3-3--|--2-2-2-2--4-4-4-4------------------------------------| 

Outro 1 + Outro 2: 
eb|----------0-----0------|-----------0-----0--------------------------------| 
B|---------1---1-----1----|---------1---1-----1------------------------------| 
G|-------2-------2-----2--|-------2-------2-----2----------------------------| 
D|--3-3-------------------|--3-3---------------------------------------------| 
A|--3-3-------------------|--3-3---------------------------------------------| 
E|--1-1-------------------|--0-0---------------------------------------------| 

roll up this ad to continue

share this page

See Also: