E-Chords
Dave Grohl

Marigold(Tabs)

Dave Grohl

Key: G
Standard tuning: EADGBe 

Once you get this basic part down  
you can kinda just strum twice a  
beat. 
  
Intro/Verse: 
|0-0-X-0-------00--0-0-X-0---0-00-| 
|0-0-X-0-------00--0-0-X-0---0-00-| 
|9-9-X-6-------66--4-4-X-5---5-55-| 
|9-9-X-6-------66--4-4-X-5---5-55-| 
|7-7-X-4-------44--2-2-X-3---3-33-| 
|----X-----------------X----------| 

Chorus: 
|--------------------------------| 
|--------------------------------| 
|--------------------------------| 
|5-5-5-5-5-5-5-5-7-7-7-7-7-7-7-7-| 
|5-5-5-5-5-5-5-5-7-7-7-7-7-7-7-7-| 
|3-3-3-3-3-3-3-3-5-5-5-5-5-5-5-5-| 

|0-----0-----0---0-----0-----0-XX| 
|0-----0-----0---0-----0-----0-XX| 
|9-----9-----9---6-----6-----6-XX| 
|9-----9-----9---6-----6-----6-XX| 
|7-----7-----7---4-----4-----4-XX| 
|------------------------------XX| 

|3-3-3-3-3-3-3-3-3-3-3-3-3-3-3-3-| 
|3-3-3-3-3-3-3-3-3-3-3-3-3-3-3-3-| 
|0-0-0-0-0-0-0-0-0-0-0-0-0-0-0-0-| 
|0-0-0-0-0-0-0-0-0-0-0-0-0-0-0-0-| 
|2-2-2-2-2-2-2-2-2-2-2-2-2-2-2-2-| 
|3-3-3-3-3-3-3-3-3-3-3-3-3-3-3-3-| 
Don't hit the last part of the  
Chorus spot on, kinda strike  
different strings at different  
volumes at times. It sounds really 
cool if you kinda hit this G in a  
weird way. 

roll up this ad to continue

share this page

See Also: