E-Chords
Dave Grohl

Color Pictures Of A Marigold(Tabs)

Dave Grohl

Key: E
Verse: 
e|---------------------------------------------------------------------------| 
B|---------------------------------------------------------------------------| 
G|--10-10-10-10--7-7-7--5-5-5-5--6-6-6-6-------------------------------------| 
D|--10-10-10-10--7-7-7--5-5-5-5--6-6-6-6-------------------------------------| 
A|--8--8--8--8---5-5-5--3-3-3-3--4-4-4-4-------------------------------------| 
E|---------------------------------------------------------------------------| 


Chorus: 
e|---------------------------------------------------------------------------| 
B|---------------------------------------------------------------------------| 
G|--------------------10-10-10-10--7-7-7-7--6-6-6-6--------------------------| 
D|--6-6-6-6--8-8-8-8--10-10-10-10--7-7-7-7--6-6-6-6--------------------------| 
A|--6-6-6-6--8-8-8-8--8--8--8--8---5-5-5-5--4-4-4-4--------------------------| 
E|--4-4-4-4--6-6-6-6---------------------------------------------------------| 


 

roll up this ad to continue

share this page

See Also: