E-Chords
Dave Graney

Rock 'n' Roll Is Where I Hide(Tabs)

Dave Graney

roll up this ad to continue

Australia 
Rock'n'Roll is Where I Hide - Dave Graney 
 
Gee I hope I'm tabbing the right song, this is the one about the famous rock 
singer who's hiding out as a singer in a tribute band isn't it? 
 
 
E|----2-----------------2-----------5--|---------------------------------------- 
B|----2---7-5-7~~~------2-----7-5-7----|---------------------------------------- 
G|.---2-----------------2-------------.|---------------------------------------- 
D|.---2-----------------2-------------.|---------------------------------------- 
A|----4-----------------4--------------|---------------------------------------- 
E|-2--2--------------2--2--------------|---------------------------------------- 
 
E|-----7-------------------5---------------3--------------2--------------------- 
B|-----7---12-10-12--------7----9-7-9------3--7-5-7~~~----2---7-5-7~~~---------- 
G|-----7-------------------6---------------4--------------2--------------------- 
D|-----7-------------------7---------------4--------------2--------------------- 
A|-----9----------------5--5---------------5--------------4--------------------- 
E|--7--7--------------------------------3--3-----------2--2--------------------- 
 
Matt Estela ( [email protected] ) 
 
share this page

See Also: