E-Chords
Daryll-ann

Dustyfied(Tabs)

Daryll-ann

roll up this ad to continue

Key: Bb
 

Fingerpicking pattern is not intended 100% accurate 
  
Intro (2*)  
   Bb6       A       D        G      Fmaj7   Cmaj7 
                  
E--3---3----0---0---0h2-0------------0------------------------------------------ 
B---3-3------2-2----3----3---0-3-3---1-3-1---0---------------------------------- 
G----3--------2-----2----------------2-------0---------------------------------- 
D-------------------0----------0-0---3------(2)--------------------------------- 
A--1--------0----------------2---------------3---------------------------------- 
E------------------------------------------------------------------------------- 

   Bb6        A      Dm      G             G7 
  Far from my daily mess I shoot the walls  
E--3---3----0-------1-0-1--(3)--------------1----------------------------------- 
B---3-3------2--2--(3)------0------0----0---0----------------------------------- 
G----3--------2----(2)------0-----0----0----0----------------------------------- 
D-------------------0----------0h2--2-3---3-3----------------------------------- 
A--1--------0------------------------------------------------------------------- 
E---------------------------3--------------------------------------------------- 


   G7      G7        G7     G7         G7      A    Dm 
to express 
E--3--3---1----------3--3---1----------3--3---------1-0h1------------- 
B----0----------0------0----------0------0-----2-3--------0----------- 
G---0----------0------0----------0------0----------------------------- 
D--3--------0h2------3--------0h2------3------------0-------0h2-3----- 
A----------------------------------------------0---------------------- 
E---------3-----------------3-----------------------------3----------- 

Bb6          A   Dm      G               G7 
Selfless and unaware of what comes first 
G7 G7 G7 G7 G7 A Dm  
What comes next                                      


    D      F      C      Bb  (3*)  D F C  C7 
What makes us .. etc ..      
E--2---2--1---1---------0--------------------------------------------------------- 
B-----3------1---0---------3--------------1------------------------------------ 
G----2------2-------0-------3-3-----------3-------------------------------------- 
D--0------3--------2---------3------------2-------------------------------------- 
A----------------3---------1--------------3-------------------------------------- 
E--------------------------------------------------------------------------------  
share this page

See Also: